  0
SECTION
  2
HEADER
  9
$ACADVER
  1
AC1015
  9
$ACADMAINTVER
 70
    20
  9
$DWGCODEPAGE
  3
ANSI_932
  9
$INSBASE
 10
0.0
 20
0.0
 30
0.0
  9
$EXTMIN
 10
-1151.020019488199
 20
-503.992309179148
 30
-0.0000000100664877
  9
$EXTMAX
 10
489.0602429600667
 20
640.0231945934044
 30
0.0000000101434797
  9
$LIMMIN
 10
0.0
 20
0.0
  9
$LIMMAX
 10
594.0
 20
420.0
  9
$ORTHOMODE
 70
     0
  9
$REGENMODE
 70
     1
  9
$FILLMODE
 70
     1
  9
$QTEXTMODE
 70
     0
  9
$MIRRTEXT
 70
     1
  9
$LTSCALE
 40
1.0
  9
$ATTMODE
 70
     1
  9
$TEXTSIZE
 40
3.5
  9
$TRACEWID
 40
1.0
  9
$TEXTSTYLE
  7
Standard
  9
$CLAYER
  8
TEXT
  9
$CELTYPE
  6
ByLayer
  9
$CECOLOR
 62
   256
  9
$CELTSCALE
 40
1.0
  9
$DISPSILH
 70
     0
  9
$DIMSCALE
 40
1.0
  9
$DIMASZ
 40
4.0
  9
$DIMEXO
 40
1.0
  9
$DIMDLI
 40
3.75
  9
$DIMRND
 40
0.0
  9
$DIMDLE
 40
0.0
  9
$DIMEXE
 40
1.0
  9
$DIMTP
 40
0.0
  9
$DIMTM
 40
0.0
  9
$DIMTXT
 40
3.5
  9
$DIMCEN
 40
2.5
  9
$DIMTSZ
 40
0.0
  9
$DIMTOL
 70
     0
  9
$DIMLIM
 70
     0
  9
$DIMTIH
 70
     1
  9
$DIMTOH
 70
     1
  9
$DIMSE1
 70
     0
  9
$DIMSE2
 70
     0
  9
$DIMTAD
 70
     1
  9
$DIMZIN
 70
     0
  9
$DIMBLK
  1

  9
$DIMASO
 70
     1
  9
$DIMSHO
 70
     1
  9
$DIMPOST
  1

  9
$DIMAPOST
  1

  9
$DIMALT
 70
     0
  9
$DIMALTD
 70
     3
  9
$DIMALTF
 40
0.0393700787401575
  9
$DIMLFAC
 40
3.0
  9
$DIMTOFL
 70
     1
  9
$DIMTVP
 40
0.0
  9
$DIMTIX
 70
     0
  9
$DIMSOXD
 70
     0
  9
$DIMSAH
 70
     0
  9
$DIMBLK1
  1

  9
$DIMBLK2
  1

  9
$DIMSTYLE
  2
ISO-25
  9
$DIMCLRD
 70
     0
  9
$DIMCLRE
 70
     0
  9
$DIMCLRT
 70
     0
  9
$DIMTFAC
 40
1.0
  9
$DIMGAP
 40
1.524
  9
$DIMJUST
 70
     0
  9
$DIMSD1
 70
     0
  9
$DIMSD2
 70
     0
  9
$DIMTOLJ
 70
     0
  9
$DIMTZIN
 70
     0
  9
$DIMALTZ
 70
     0
  9
$DIMALTTZ
 70
     0
  9
$DIMUPT
 70
     0
  9
$DIMDEC
 70
     2
  9
$DIMTDEC
 70
     2
  9
$DIMALTU
 70
     2
  9
$DIMALTTD
 70
     3
  9
$DIMTXSTY
  7
Standard
  9
$DIMAUNIT
 70
     0
  9
$DIMADEC
 70
     2
  9
$DIMALTRND
 40
0.0
  9
$DIMAZIN
 70
     0
  9
$DIMDSEP
 70
    44
  9
$DIMATFIT
 70
     3
  9
$DIMFRAC
 70
     0
  9
$DIMLDRBLK
  1

  9
$DIMLUNIT
 70
     2
  9
$DIMLWD
 70
    -2
  9
$DIMLWE
 70
    -2
  9
$DIMTMOVE
 70
     0
  9
$LUNITS
 70
     2
  9
$LUPREC
 70
     2
  9
$SKETCHINC
 40
1.0
  9
$FILLETRAD
 40
0.0
  9
$AUNITS
 70
     0
  9
$AUPREC
 70
     2
  9
$MENU
  1
.
  9
$ELEVATION
 40
0.0
  9
$PELEVATION
 40
0.0
  9
$THICKNESS
 40
0.0
  9
$LIMCHECK
 70
     0
  9
$CHAMFERA
 40
0.0
  9
$CHAMFERB
 40
0.0
  9
$CHAMFERC
 40
0.0
  9
$CHAMFERD
 40
0.0
  9
$SKPOLY
 70
     0
  9
$TDCREATE
 40
2460588.489137372
  9
$TDUCREATE
 40
2460588.114137372
  9
$TDUPDATE
 40
2460734.644581297
  9
$TDUUPDATE
 40
2460734.269581297
  9
$TDINDWG
 40
0.0113733912
  9
$TDUSRTIMER
 40
0.0113733912
  9
$USRTIMER
 70
     1
  9
$ANGBASE
 50
0.0
  9
$ANGDIR
 70
     0
  9
$PDMODE
 70
     0
  9
$PDSIZE
 40
-1.0
  9
$PLINEWID
 40
0.0
  9
$SPLFRAME
 70
     0
  9
$SPLINETYPE
 70
     6
  9
$SPLINESEGS
 70
     8
  9
$HANDSEED
  5
C9E5
  9
$SURFTAB1
 70
     6
  9
$SURFTAB2
 70
     6
  9
$SURFTYPE
 70
     6
  9
$SURFU
 70
     6
  9
$SURFV
 70
     6
  9
$UCSBASE
  2

  9
$UCSNAME
  2

  9
$UCSORG
 10
0.0
 20
0.0
 30
0.0
  9
$UCSXDIR
 10
1.0
 20
0.0
 30
0.0
  9
$UCSYDIR
 10
0.0
 20
1.0
 30
0.0
  9
$UCSORTHOREF
  2

  9
$UCSORTHOVIEW
 70
     0
  9
$UCSORGTOP
 10
0.0
 20
0.0
 30
0.0
  9
$UCSORGBOTTOM
 10
0.0
 20
0.0
 30
0.0
  9
$UCSORGLEFT
 10
0.0
 20
0.0
 30
0.0
  9
$UCSORGRIGHT
 10
0.0
 20
0.0
 30
0.0
  9
$UCSORGFRONT
 10
0.0
 20
0.0
 30
0.0
  9
$UCSORGBACK
 10
0.0
 20
0.0
 30
0.0
  9
$PUCSBASE
  2

  9
$PUCSNAME
  2

  9
$PUCSORG
 10
0.0
 20
0.0
 30
0.0
  9
$PUCSXDIR
 10
1.0
 20
0.0
 30
0.0
  9
$PUCSYDIR
 10
0.0
 20
1.0
 30
0.0
  9
$PUCSORTHOREF
  2

  9
$PUCSORTHOVIEW
 70
     0
  9
$PUCSORGTOP
 10
0.0
 20
0.0
 30
0.0
  9
$PUCSORGBOTTOM
 10
0.0
 20
0.0
 30
0.0
  9
$PUCSORGLEFT
 10
0.0
 20
0.0
 30
0.0
  9
$PUCSORGRIGHT
 10
0.0
 20
0.0
 30
0.0
  9
$PUCSORGFRONT
 10
0.0
 20
0.0
 30
0.0
  9
$PUCSORGBACK
 10
0.0
 20
0.0
 30
0.0
  9
$USERI1
 70
     0
  9
$USERI2
 70
     0
  9
$USERI3
 70
     0
  9
$USERI4
 70
     0
  9
$USERI5
 70
     0
  9
$USERR1
 40
0.0
  9
$USERR2
 40
0.0
  9
$USERR3
 40
0.0
  9
$USERR4
 40
0.0
  9
$USERR5
 40
0.0
  9
$WORLDVIEW
 70
     1
  9
$SHADEDGE
 70
     3
  9
$SHADEDIF
 70
    70
  9
$TILEMODE
 70
     1
  9
$MAXACTVP
 70
    64
  9
$PINSBASE
 10
0.0
 20
0.0
 30
0.0
  9
$PLIMCHECK
 70
     0
  9
$PEXTMIN
 10
1.000000000000000E+20
 20
1.000000000000000E+20
 30
1.000000000000000E+20
  9
$PEXTMAX
 10
-1.000000000000000E+20
 20
-1.000000000000000E+20
 30
-1.000000000000000E+20
  9
$PLIMMIN
 10
0.0
 20
0.0
  9
$PLIMMAX
 10
420.0
 20
297.0
  9
$UNITMODE
 70
     0
  9
$VISRETAIN
 70
     1
  9
$PLINEGEN
 70
     0
  9
$PSLTSCALE
 70
     1
  9
$TREEDEPTH
 70
  3020
  9
$CMLSTYLE
  2
Standard
  9
$CMLJUST
 70
     0
  9
$CMLSCALE
 40
20.0
  9
$PROXYGRAPHICS
 70
     1
  9
$MEASUREMENT
 70
     1
  9
$CELWEIGHT
370
    -1
  9
$ENDCAPS
280
     0
  9
$JOINSTYLE
280
     0
  9
$LWDISPLAY
290
     1
  9
$INSUNITS
 70
     4
  9
$HYPERLINKBASE
  1

  9
$STYLESHEET
  1
yama1.ctb
  9
$XEDIT
290
     1
  9
$CEPSNTYPE
380
     0
  9
$PSTYLEMODE
290
     1
  9
$FINGERPRINTGUID
  2
{76209e5f-c2a1-4a0a-949c-43b82b28e79b}
  9
$VERSIONGUID
  2
{B33372C7-717C-4ECA-B9B0-267678094697}
  9
$EXTNAMES
290
     1
  9
$PSVPSCALE
 40
0.0
  9
$OLESTARTUP
290
     0
  0
ENDSEC
  0
SECTION
  2
CLASSES
  0
CLASS
  1
ACDBDICTIONARYWDFLT
  2
AcDbDictionaryWithDefault
  3
ObjectDBX Classes
 90
        0
280
     0
281
     0
  0
CLASS
  1
VISUALSTYLE
  2
AcDbVisualStyle
  3
ObjectDBX Classes
 90
    36863
280
     0
281
     0
  0
CLASS
  1
MATERIAL
  2
AcDbMaterial
  3
ObjectDBX Classes
 90
     1153
280
     0
281
     0
  0
CLASS
  1
SCALE
  2
AcDbScale
  3
ObjectDBX Classes
 90
     1153
280
     0
281
     0
  0
CLASS
  1
TABLESTYLE
  2
AcDbTableStyle
  3
ObjectDBX Classes
 90
     4095
280
     0
281
     0
  0
CLASS
  1
MLEADERSTYLE
  2
AcDbMLeaderStyle
  3
ACDB_MLEADERSTYLE_CLASS
 90
     4095
280
     0
281
     0
  0
CLASS
  1
SUN
  2
AcDbSun
  3
NULL
 90
    33792
280
     0
281
     0
  0
CLASS
  1
ACDBPLACEHOLDER
  2
AcDbPlaceHolder
  3
ObjectDBX Classes
 90
        0
280
     0
281
     0
  0
CLASS
  1
LAYOUT
  2
AcDbLayout
  3
ObjectDBX Classes
 90
        0
280
     0
281
     0
  0
CLASS
  1
DICTIONARYVAR
  2
AcDbDictionaryVar
  3
ObjectDBX Classes
 90
        0
280
     0
281
     0
  0
CLASS
  1
SORTENTSTABLE
  2
AcDbSortentsTable
  3
ObjectDBX Classes
 90
        0
280
     0
281
     0
  0
ENDSEC
  0
SECTION
  2
TABLES
  0
TABLE
  2
VPORT
  5
8
330
0
100
AcDbSymbolTable
 70
     1
  0
VPORT
  5
29
330
8
100
AcDbSymbolTableRecord
100
AcDbViewportTableRecord
  2
*Active
 70
     0
 10
0.0
 20
0.0
 11
1.0
 21
1.0
 12
-330.9798882640663
 22
68.01544270712827
 13
0.0
 23
0.0
 14
10.0
 24
10.0
 15
10.0
 25
10.0
 16
0.0
 26
0.0
 36
1.0
 17
0.0
 27
0.0
 37
0.0
 40
1152.671358782181
 41
2.352272727272727
 42
50.0
 43
0.0
 44
0.0
 50
0.0
 51
0.0
 71
     0
 72
  2000
 73
     1
 74
     3
 75
     0
 76
     0
 77
     0
 78
     0
281
     0
 65
     1
110
0.0
120
0.0
130
0.0
111
1.0
121
0.0
131
0.0
112
0.0
122
1.0
132
0.0
 79
     0
146
0.0
  0
ENDTAB
  0
TABLE
  2
LTYPE
  5
5
330
0
100
AcDbSymbolTable
 70
     4
  0
LTYPE
  5
14
330
5
100
AcDbSymbolTableRecord
100
AcDbLinetypeTableRecord
  2
ByBlock
 70
     0
  3

 72
    65
 73
     0
 40
0.0
  0
LTYPE
  5
15
330
5
100
AcDbSymbolTableRecord
100
AcDbLinetypeTableRecord
  2
ByLayer
 70
     0
  3

 72
    65
 73
     0
 40
0.0
  0
LTYPE
  5
16
330
5
100
AcDbSymbolTableRecord
100
AcDbLinetypeTableRecord
  2
Continuous
 70
     0
  3
Solid line
 72
    65
 73
     0
 40
0.0
  0
LTYPE
  5
5E
330
5
100
AcDbSymbolTableRecord
100
AcDbLinetypeTableRecord
  2
HIDDEN
 70
     0
  3
Hidden __ __ __ __ __ __ __ __ __ __ __ __ __ __
 72
    65
 73
     2
 40
1.905
 49
1.27
 74
     0
 49
-0.635
 74
     0
  0
LTYPE
  5
61
330
5
100
AcDbSymbolTableRecord
100
AcDbLinetypeTableRecord
  2
CENTERX2
 70
     0
  3
Center (2x) ________  __  ________  __  _____
 72
    65
 73
     4
 40
20.32
 49
12.7
 74
     0
 49
-2.54
 74
     0
 49
2.54
 74
     0
 49
-2.54
 74
     0
  0
LTYPE
  5
C0A5
330
5
100
AcDbSymbolTableRecord
100
AcDbLinetypeTableRecord
  2
CENTER2
 70
     0
  3
----------  --  ----------  --  
 72
    65
 73
     4
 40
20.0
 49
12.5
 74
     0
 49
-2.5
 74
     0
 49
2.5
 74
     0
 49
-2.5
 74
     0
  0
ENDTAB
  0
TABLE
  2
LAYER
  5
2
102
{ACAD_XDICTIONARY
360
C0A9
102
}
330
0
100
AcDbSymbolTable
 70
     8
  0
LAYER
  5
10
330
2
100
AcDbSymbolTableRecord
100
AcDbLayerTableRecord
  2
0
 70
     0
 62
     7
  6
Continuous
370
    -3
390
F
  0
LAYER
  5
63
330
2
100
AcDbSymbolTableRecord
100
AcDbLayerTableRecord
  2
SLD-0
 70
     0
 62
   179
  6
Continuous
370
    -3
390
F
  0
LAYER
  5
64
330
2
100
AcDbSymbolTableRecord
100
AcDbLayerTableRecord
  2
SUNPOU
 70
     0
 62
     7
  6
Continuous
370
    -3
390
F
  0
LAYER
  5
65
330
2
100
AcDbSymbolTableRecord
100
AcDbLayerTableRecord
  2
JISSEN
 70
     0
 62
   179
  6
Continuous
370
    -3
390
F
  0
LAYER
  5
67
330
2
100
AcDbSymbolTableRecord
100
AcDbLayerTableRecord
  2
WAKU
 70
     0
 62
     5
  6
Continuous
370
    -3
390
F
  0
LAYER
  5
6A
330
2
100
AcDbSymbolTableRecord
100
AcDbLayerTableRecord
  2
TEXT
 70
     0
 62
   179
  6
Continuous
370
    -3
390
F
  0
LAYER
  5
6E9F
330
2
100
AcDbSymbolTableRecord
100
AcDbLayerTableRecord
  2
Defpoints
 70
     0
 62
     7
  6
Continuous
290
     0
370
    -3
390
F
  0
LAYER
  5
C0A6
330
2
100
AcDbSymbolTableRecord
100
AcDbLayerTableRecord
  2
_0-0_
 70
     0
 62
     7
  6
Continuous
370
    -3
390
F
  0
ENDTAB
  0
TABLE
  2
STYLE
  5
3
330
0
100
AcDbSymbolTable
 70
    22
  0
STYLE
  5
11
330
3
100
AcDbSymbolTableRecord
100
AcDbTextStyleTableRecord
  2
Standard
 70
     0
 40
0.0
 41
1.0
 50
0.0
 71
     0
 42
3.5
  3
txt
  4
bigfont
  0
STYLE
  5
7A
330
3
100
AcDbSymbolTableRecord
100
AcDbTextStyleTableRecord
  2
SLDTEXTSTYLE0
 70
     0
 40
0.0
 41
0.7
 50
0.0
 71
     0
 42
3.5
  3
TXT
  4
bigfont
  0
STYLE
  5
122
330
3
100
AcDbSymbolTableRecord
100
AcDbTextStyleTableRecord
  2
SLDTEXTSTYLE1
 70
     0
 40
0.0
 41
0.56
 50
0.0
 71
     0
 42
3.5
  3
TXT
  4
bigfont
  0
STYLE
  5
125
330
3
100
AcDbSymbolTableRecord
100
AcDbTextStyleTableRecord
  2
SLDTEXTSTYLE2
 70
     0
 40
0.0
 41
0.6142857142857144
 50
0.0
 71
     0
 42
3.5
  3
TXT
  4
bigfont
  0
STYLE
  5
128
330
3
100
AcDbSymbolTableRecord
100
AcDbTextStyleTableRecord
  2
SLDTEXTSTYLE3
 70
     0
 40
0.0
 41
0.5957446808510639
 50
0.0
 71
     0
 42
3.5
  3
TXT
  4
bigfont
  0
STYLE
  5
13E
330
3
100
AcDbSymbolTableRecord
100
AcDbTextStyleTableRecord
  2
SLDTEXTSTYLE4
 70
     0
 40
0.0
 41
0.62
 50
0.0
 71
     0
 42
3.5
  3
TXT
  4
bigfont
  0
STYLE
  5
140
330
3
100
AcDbSymbolTableRecord
100
AcDbTextStyleTableRecord
  2
SLDTEXTSTYLE5
 70
     0
 40
0.0
 41
0.7446808510638298
 50
0.0
 71
     0
 42
3.5
  3
TXT
  4
bigfont
  0
STYLE
  5
192
330
3
100
AcDbSymbolTableRecord
100
AcDbTextStyleTableRecord
  2
SLDTEXTSTYLE6
 70
     0
 40
0.0
 41
0.5377237236929881
 50
0.0
 71
     0
 42
3.5
  3
TXT
  4
bigfont
  0
STYLE
  5
195
330
3
100
AcDbSymbolTableRecord
100
AcDbTextStyleTableRecord
  2
SLDTEXTSTYLE7
 70
     0
 40
0.0
 41
0.5196126987541411
 50
0.0
 71
     0
 42
3.5
  3
TXT
  4
bigfont
  0
STYLE
  5
197
330
3
100
AcDbSymbolTableRecord
100
AcDbTextStyleTableRecord
  2
SLDTEXTSTYLE8
 70
     0
 40
0.0
 41
0.3657322248997628
 50
0.0
 71
     0
 42
3.5
  3
TXT
  4
bigfont
  0
STYLE
  5
199
330
3
100
AcDbSymbolTableRecord
100
AcDbTextStyleTableRecord
  2
SLDTEXTSTYLE9
 70
     0
 40
0.0
 41
0.6705423102138459
 50
0.0
 71
     0
 42
3.5
  3
TXT
  4
bigfont
  0
STYLE
  5
19B
330
3
100
AcDbSymbolTableRecord
100
AcDbTextStyleTableRecord
  2
SLDTEXTSTYLE10
 70
     0
 40
0.0
 41
0.3844219260547903
 50
0.0
 71
     0
 42
3.5
  3
TXT
  4
bigfont
  0
STYLE
  5
19D
330
3
100
AcDbSymbolTableRecord
100
AcDbTextStyleTableRecord
  2
SLDTEXTSTYLE11
 70
     0
 40
0.0
 41
0.3672735795067306
 50
0.0
 71
     0
 42
3.5
  3
TXT
  4
bigfont
  0
STYLE
  5
1A0
330
3
100
AcDbSymbolTableRecord
100
AcDbTextStyleTableRecord
  2
SLDTEXTSTYLE12
 70
     0
 40
0.0
 41
0.3856799473688108
 50
0.0
 71
     0
 42
3.5
  3
TXT
  4
bigfont
  0
STYLE
  5
1A3
330
3
100
AcDbSymbolTableRecord
100
AcDbTextStyleTableRecord
  2
SLDTEXTSTYLE13
 70
     0
 40
0.0
 41
0.362490402553475
 50
0.0
 71
     0
 42
3.5
  3
TXT
  4
bigfont
  0
STYLE
  5
1A6
330
3
100
AcDbSymbolTableRecord
100
AcDbTextStyleTableRecord
  2
SLDTEXTSTYLE14
 70
     0
 40
0.0
 41
0.3954253167839856
 50
0.0
 71
     0
 42
3.5
  3
TXT
  4
bigfont
  0
STYLE
  5
1B3
330
3
100
AcDbSymbolTableRecord
100
AcDbTextStyleTableRecord
  2
SLDTEXTSTYLE15
 70
     0
 40
0.0
 41
0.6333333333333334
 50
0.0
 71
     0
 42
3.5
  3
TXT
  4
bigfont
  0
STYLE
  5
1BB
330
3
100
AcDbSymbolTableRecord
100
AcDbTextStyleTableRecord
  2
SLDTEXTSTYLE16
 70
     0
 40
0.0
 41
0.5942858944073116
 50
0.0
 71
     0
 42
3.5
  3
TXT
  4
bigfont
  0
STYLE
  5
1C1
330
3
100
AcDbSymbolTableRecord
100
AcDbTextStyleTableRecord
  2
SLDTEXTSTYLE17
 70
     0
 40
0.0
 41
0.5370941827163901
 50
0.0
 71
     0
 42
3.5
  3
TXT
  4
bigfont
  0
ENDTAB
  0
TABLE
  2
VIEW
  5
6
330
0
100
AcDbSymbolTable
 70
     0
  0
ENDTAB
  0
TABLE
  2
UCS
  5
7
330
0
100
AcDbSymbolTable
 70
     0
  0
ENDTAB
  0
TABLE
  2
APPID
  5
9
330
0
100
AcDbSymbolTable
 70
     7
  0
APPID
  5
12
330
9
100
AcDbSymbolTableRecord
100
AcDbRegAppTableRecord
  2
ACAD
 70
     0
  0
APPID
  5
5430
330
9
100
AcDbSymbolTableRecord
100
AcDbRegAppTableRecord
  2
___LIKI___
 70
     0
  0
APPID
  5
5432
330
9
100
AcDbSymbolTableRecord
100
AcDbRegAppTableRecord
  2
ACAD_OBJECT_CHANGE_GUID
 70
     0
  0
APPID
  5
71BA
330
9
100
AcDbSymbolTableRecord
100
AcDbRegAppTableRecord
  2
ACAD_SPLINE_DATA
 70
     0
  0
APPID
  5
71BB
330
9
100
AcDbSymbolTableRecord
100
AcDbRegAppTableRecord
  2
ACAD_SPLINE_DATA2
 70
     0
  0
APPID
  5
C0A8
330
9
100
AcDbSymbolTableRecord
100
AcDbRegAppTableRecord
  2
ACAD_PSEXT
 70
     0
  0
APPID
  5
C9E4
330
9
100
AcDbSymbolTableRecord
100
AcDbRegAppTableRecord
  2
ACAD_MLEADERVER
 70
     0
  0
ENDTAB
  0
TABLE
  2
DIMSTYLE
  5
A
330
0
100
AcDbSymbolTable
 70
    10
100
AcDbDimStyleTable
 71
     1
340
27
  0
DIMSTYLE
105
27
330
A
100
AcDbSymbolTableRecord
100
AcDbDimStyleTableRecord
  2
ISO-25
 70
     0
 41
2.5
 42
0.625
 43
3.75
 44
1.25
 73
     0
 74
     0
 77
     1
 78
     8
140
2.5
141
2.5
143
0.03937007874016
147
0.625
171
     3
172
     1
271
     2
272
     2
274
     3
278
    44
283
     0
284
     8
340
11
  0
DIMSTYLE
105
39EE
330
A
100
AcDbSymbolTableRecord
100
AcDbDimStyleTableRecord
  2
SLDDIMSTYLE0
 70
     0
 41
4.0
 44
0.0
 45
0.000000001
 73
     0
 74
     0
 77
     3
 78
    12
 79
     3
140
3.5
144
3.0
147
0.875
173
     1
271
     1
272
     1
276
     2
284
    12
340
7A
341
39EF
343
39EF
344
39EF
  0
DIMSTYLE
105
3A13
330
A
100
AcDbSymbolTableRecord
100
AcDbDimStyleTableRecord
  2
SLDDIMSTYLE1
 70
     0
 41
4.0
 44
0.0
 45
0.000000001
 73
     0
 74
     0
 77
     3
 78
    12
 79
     3
140
3.5
144
3.0
147
0.875
173
     1
271
     2
272
     2
276
     2
284
    12
340
7A
341
39EF
343
39EF
344
39EF
  0
DIMSTYLE
105
41C6
330
A
100
AcDbSymbolTableRecord
100
AcDbDimStyleTableRecord
  2
SLDDIMSTYLE2
 70
     0
 41
4.0
 44
0.0
 45
0.000000001
 73
     0
 74
     0
 77
     3
 78
    12
 79
     3
140
3.5
144
3.0
147
0.875
172
     1
173
     1
271
     2
272
     2
276
     2
284
    12
289
     0
340
7A
341
39EF
343
39EF
344
39EF
  0
DIMSTYLE
105
41D3
330
A
100
AcDbSymbolTableRecord
100
AcDbDimStyleTableRecord
  2
SLDDIMSTYLE3
 70
     0
 41
4.0
 44
0.0
 45
0.000000001
 73
     0
 74
     0
 77
     3
 78
    12
 79
     3
140
3.5
144
3.0
147
0.875
172
     1
173
     1
271
     1
272
     1
276
     2
284
    12
289
     0
340
7A
341
39EF
343
39EF
344
39EF
  0
DIMSTYLE
105
4218
330
A
100
AcDbSymbolTableRecord
100
AcDbDimStyleTableRecord
  2
SLDDIMSTYLE4
 70
     0
 41
2.5
 44
0.0
 45
0.000000001
146
2.5
147
0.0
173
     1
271
     0
272
     0
276
     2
340
11
341
4219
343
4219
344
4219
  0
DIMSTYLE
105
C0A7
330
A
100
AcDbSymbolTableRecord
100
AcDbDimStyleTableRecord
  2
Standard
 70
     0
340
11
  0
ENDTAB
  0
TABLE
  2
BLOCK_RECORD
  5
1
330
0
100
AcDbSymbolTable
 70
    56
  0
BLOCK_RECORD
  5
1F
102
{ACAD_XDICTIONARY
360
7022
102
}
330
1
100
AcDbSymbolTableRecord
100
AcDbBlockTableRecord
  2
*Model_Space
340
22
  0
BLOCK_RECORD
  5
1B
330
1
100
AcDbSymbolTableRecord
100
AcDbBlockTableRecord
  2
*Paper_Space
340
1E
  0
BLOCK_RECORD
  5
23
330
1
100
AcDbSymbolTableRecord
100
AcDbBlockTableRecord
  2
*Paper_Space0
340
26
  0
BLOCK_RECORD
  5
6C
330
1
100
AcDbSymbolTableRecord
100
AcDbBlockTableRecord
  2
量産出図印
340
0
  0
BLOCK_RECORD
  5
77
330
1
100
AcDbSymbolTableRecord
100
AcDbBlockTableRecord
  2
SW_NOTE_0
340
0
102
{BLKREFS
331
7C
102
}
  0
BLOCK_RECORD
  5
7D
330
1
100
AcDbSymbolTableRecord
100
AcDbBlockTableRecord
  2
SW_NOTE_0_1
340
0
102
{BLKREFS
331
81
102
}
  0
BLOCK_RECORD
  5
82
330
1
100
AcDbSymbolTableRecord
100
AcDbBlockTableRecord
  2
SW_NOTE_0_2
340
0
102
{BLKREFS
331
86
102
}
  0
BLOCK_RECORD
  5
87
330
1
100
AcDbSymbolTableRecord
100
AcDbBlockTableRecord
  2
SW_NOTE_0_3
340
0
102
{BLKREFS
331
8B
102
}
  0
BLOCK_RECORD
  5
8C
330
1
100
AcDbSymbolTableRecord
100
AcDbBlockTableRecord
  2
SW_NOTE_0_4
340
0
102
{BLKREFS
331
90
102
}
  0
BLOCK_RECORD
  5
91
330
1
100
AcDbSymbolTableRecord
100
AcDbBlockTableRecord
  2
SW_NOTE_0_5
340
0
102
{BLKREFS
331
95
102
}
  0
BLOCK_RECORD
  5
96
330
1
100
AcDbSymbolTableRecord
100
AcDbBlockTableRecord
  2
SW_NOTE_0_6
340
0
102
{BLKREFS
331
9A
102
}
  0
BLOCK_RECORD
  5
9B
330
1
100
AcDbSymbolTableRecord
100
AcDbBlockTableRecord
  2
SW_NOTE_0_7
340
0
102
{BLKREFS
331
9F
102
}
  0
BLOCK_RECORD
  5
A0
330
1
100
AcDbSymbolTableRecord
100
AcDbBlockTableRecord
  2
SW_NOTE_0_8
340
0
102
{BLKREFS
331
A4
102
}
  0
BLOCK_RECORD
  5
A5
330
1
100
AcDbSymbolTableRecord
100
AcDbBlockTableRecord
  2
SW_NOTE_0_9
340
0
102
{BLKREFS
331
A9
102
}
  0
BLOCK_RECORD
  5
AA
330
1
100
AcDbSymbolTableRecord
100
AcDbBlockTableRecord
  2
SW_NOTE_0_10
340
0
102
{BLKREFS
331
AE
102
}
  0
BLOCK_RECORD
  5
AF
330
1
100
AcDbSymbolTableRecord
100
AcDbBlockTableRecord
  2
SW_NOTE_0_11
340
0
102
{BLKREFS
331
B3
102
}
  0
BLOCK_RECORD
  5
B4
330
1
100
AcDbSymbolTableRecord
100
AcDbBlockTableRecord
  2
SW_NOTE_0_12
340
0
102
{BLKREFS
331
B8
102
}
  0
BLOCK_RECORD
  5
B9
330
1
100
AcDbSymbolTableRecord
100
AcDbBlockTableRecord
  2
SW_NOTE_0_13
340
0
102
{BLKREFS
331
BD
102
}
  0
BLOCK_RECORD
  5
BE
330
1
100
AcDbSymbolTableRecord
100
AcDbBlockTableRecord
  2
SW_NOTE_0_14
340
0
102
{BLKREFS
331
C2
102
}
  0
BLOCK_RECORD
  5
C3
330
1
100
AcDbSymbolTableRecord
100
AcDbBlockTableRecord
  2
SW_NOTE_0_15
340
0
102
{BLKREFS
331
C7
102
}
  0
BLOCK_RECORD
  5
111
330
1
100
AcDbSymbolTableRecord
100
AcDbBlockTableRecord
  2
SW_SYMBOL_T#_1
340
0
  0
BLOCK_RECORD
  5
119
330
1
100
AcDbSymbolTableRecord
100
AcDbBlockTableRecord
  2
SW_SYMBOL_T#_2
340
0
  0
BLOCK_RECORD
  5
1CF
330
1
100
AcDbSymbolTableRecord
100
AcDbBlockTableRecord
  2
SW_TABLEANNOTATION_0
340
0
  0
BLOCK_RECORD
  5
39EF
330
1
100
AcDbSymbolTableRecord
100
AcDbBlockTableRecord
  2
_Open30
340
0
102
{BLKREFS
331
6F62
331
6F63
331
6F6B
331
6F6C
331
6F74
331
6F75
331
6F7D
331
6F7E
331
6F86
331
6F87
331
6F8F
331
6F90
331
6F9A
331
6F9B
331
6FA3
331
6FA4
331
6FAC
331
6FAD
331
6FB5
331
6FB6
331
6FBE
331
6FBF
331
6FC7
331
6FC8
331
6FD0
331
6FD1
331
6FD9
331
6FDA
331
6FE2
331
6FE3
331
6FEB
331
6FEC
331
6FF4
331
6FF5
331
6FFD
331
6FFE
331
7006
331
7007
331
700F
331
7010
331
7018
331
7019
102
}
  0
BLOCK_RECORD
  5
39F5
330
1
100
AcDbSymbolTableRecord
100
AcDbBlockTableRecord
  2
_D
340
0
  0
BLOCK_RECORD
  5
39FF
330
1
100
AcDbSymbolTableRecord
100
AcDbBlockTableRecord
  2
_D_1
340
0
  0
BLOCK_RECORD
  5
3A09
330
1
100
AcDbSymbolTableRecord
100
AcDbBlockTableRecord
  2
_D_2
340
0
  0
BLOCK_RECORD
  5
3A14
330
1
100
AcDbSymbolTableRecord
100
AcDbBlockTableRecord
  2
_D_3
340
0
  0
BLOCK_RECORD
  5
3A1E
330
1
100
AcDbSymbolTableRecord
100
AcDbBlockTableRecord
  2
_D_4
340
0
  0
BLOCK_RECORD
  5
3A28
330
1
100
AcDbSymbolTableRecord
100
AcDbBlockTableRecord
  2
_D_5
340
0
  0
BLOCK_RECORD
  5
3A32
330
1
100
AcDbSymbolTableRecord
100
AcDbBlockTableRecord
  2
_D_6
340
0
  0
BLOCK_RECORD
  5
3A3B
330
1
100
AcDbSymbolTableRecord
100
AcDbBlockTableRecord
  2
SW_CENTERMARKSYMBOL_0
340
0
  0
BLOCK_RECORD
  5
3A4C
330
1
100
AcDbSymbolTableRecord
100
AcDbBlockTableRecord
  2
SW_BROKEN_VIEW_0
340
0
102
{BLKREFS
331
3A4F
102
}
  0
BLOCK_RECORD
  5
41A8
330
1
100
AcDbSymbolTableRecord
100
AcDbBlockTableRecord
  2
_D_7
340
0
  0
BLOCK_RECORD
  5
41B2
330
1
100
AcDbSymbolTableRecord
100
AcDbBlockTableRecord
  2
_D_8
340
0
  0
BLOCK_RECORD
  5
41BC
330
1
100
AcDbSymbolTableRecord
100
AcDbBlockTableRecord
  2
_D_9
340
0
  0
BLOCK_RECORD
  5
41C7
330
1
100
AcDbSymbolTableRecord
100
AcDbBlockTableRecord
  2
_D_10
340
0
  0
BLOCK_RECORD
  5
41D4
330
1
100
AcDbSymbolTableRecord
100
AcDbBlockTableRecord
  2
_D_11
340
0
  0
BLOCK_RECORD
  5
41E0
330
1
100
AcDbSymbolTableRecord
100
AcDbBlockTableRecord
  2
_D_12
340
0
  0
BLOCK_RECORD
  5
41EA
330
1
100
AcDbSymbolTableRecord
100
AcDbBlockTableRecord
  2
_D_13
340
0
  0
BLOCK_RECORD
  5
41F4
330
1
100
AcDbSymbolTableRecord
100
AcDbBlockTableRecord
  2
_D_14
340
0
  0
BLOCK_RECORD
  5
41FE
330
1
100
AcDbSymbolTableRecord
100
AcDbBlockTableRecord
  2
_D_15
340
0
  0
BLOCK_RECORD
  5
4208
330
1
100
AcDbSymbolTableRecord
100
AcDbBlockTableRecord
  2
_D_16
340
0
  0
BLOCK_RECORD
  5
4212
330
1
100
AcDbSymbolTableRecord
100
AcDbBlockTableRecord
  2
SW_NOTE_0_16
340
0
  0
BLOCK_RECORD
  5
4219
330
1
100
AcDbSymbolTableRecord
100
AcDbBlockTableRecord
  2
_Dot
340
0
  0
BLOCK_RECORD
  5
4B22
330
1
100
AcDbSymbolTableRecord
100
AcDbBlockTableRecord
  2
_D_17
340
0
  0
BLOCK_RECORD
  5
4B2C
330
1
100
AcDbSymbolTableRecord
100
AcDbBlockTableRecord
  2
_D_18
340
0
  0
BLOCK_RECORD
  5
4B36
330
1
100
AcDbSymbolTableRecord
100
AcDbBlockTableRecord
  2
_D_19
340
0
  0
BLOCK_RECORD
  5
4B40
330
1
100
AcDbSymbolTableRecord
100
AcDbBlockTableRecord
  2
_D_20
340
0
  0
BLOCK_RECORD
  5
4B49
330
1
100
AcDbSymbolTableRecord
100
AcDbBlockTableRecord
  2
SW_CENTERMARKSYMBOL_1
340
0
  0
BLOCK_RECORD
  5
53B8
330
1
100
AcDbSymbolTableRecord
100
AcDbBlockTableRecord
  2
SW_NOTE_0_17
340
0
  0
BLOCK_RECORD
  5
53BF
330
1
100
AcDbSymbolTableRecord
100
AcDbBlockTableRecord
  2
SW_NOTE_0_18
340
0
  0
BLOCK_RECORD
  5
53C6
330
1
100
AcDbSymbolTableRecord
100
AcDbBlockTableRecord
  2
SW_NOTE_0_19
340
0
  0
BLOCK_RECORD
  5
5417
330
1
100
AcDbSymbolTableRecord
100
AcDbBlockTableRecord
  2
SW_NOTE_0_20
340
0
  0
ENDTAB
  0
ENDSEC
  0
SECTION
  2
BLOCKS
  0
BLOCK
  5
20
330
1F
100
AcDbEntity
  8
0
100
AcDbBlockBegin
  2
*Model_Space
 70
     0
 10
0.0
 20
0.0
 30
0.0
  3
*Model_Space
  1

  0
ENDBLK
  5
21
330
1F
100
AcDbEntity
  8
0
100
AcDbBlockEnd
  0
BLOCK
  5
1C
330
1B
100
AcDbEntity
 67
     1
  8
0
100
AcDbBlockBegin
  2
*Paper_Space
 70
     0
 10
0.0
 20
0.0
 30
0.0
  3
*Paper_Space
  1

  0
ENDBLK
  5
1D
330
1B
100
AcDbEntity
 67
     1
  8
0
100
AcDbBlockEnd
  0
BLOCK
  5
24
330
23
100
AcDbEntity
  8
0
100
AcDbBlockBegin
  2
*Paper_Space0
 70
     0
 10
0.0
 20
0.0
 30
0.0
  3
*Paper_Space0
  1

  0
ENDBLK
  5
25
330
23
100
AcDbEntity
  8
0
100
AcDbBlockEnd
  0
BLOCK
  5
6D
330
6C
100
AcDbEntity
  8
0
100
AcDbBlockBegin
  2
量産出図印
 70
     0
 10
0.0
 20
0.0
 30
0.0
  3
量産出図印
  1

  0
CIRCLE
  5
6F
330
6C
100
AcDbEntity
  8
SUNPOU
370
    50
100
AcDbCircle
 10
113.977415818009
 20
139.6891022851132
 30
0.0
 40
17.49999999999999
  0
ARC
  5
70
330
6C
100
AcDbEntity
  8
SUNPOU
370
    50
100
AcDbCircle
 10
113.977415818009
 20
139.6891022851132
 30
0.0
 40
13.00000000000001
100
AcDbArc
 50
197.9202131393931
 51
342.0797868606085
  0
CIRCLE
  5
71
330
6C
100
AcDbEntity
  8
SUNPOU
100
AcDbCircle
 10
101.4774158180089
 20
148.6891022851132
 30
0.0
 40
0.9999999999999975
  0
CIRCLE
  5
72
330
6C
100
AcDbEntity
  8
SUNPOU
100
AcDbCircle
 10
126.477415818009
 20
148.6891022851132
 30
0.0
 40
0.9999999999999975
  0
LINE
  5
73
330
6C
100
AcDbEntity
  8
SUNPOU
370
    50
100
AcDbLine
 10
96.94069078060817
 20
143.6891022851132
 30
0.0
 11
131.0141408554098
 21
143.6891022851132
 31
0.0
  0
LINE
  5
74
330
6C
100
AcDbEntity
  8
SUNPOU
370
    50
100
AcDbLine
 10
96.94069078060817
 20
135.6891022851132
 30
0.0
 11
131.0141408554098
 21
135.6891022851132
 31
0.0
  0
HATCH
  5
75
330
6C
100
AcDbEntity
  8
SUNPOU
 62
     7
100
AcDbHatch
 10
0.0
 20
0.0
 30
0.0
210
0.0
220
0.0
230
1.0
  2
SOLID
 70
     1
 71
     0
 91
        1
 92
        0
 93
        1
 72
     2
 10
101.4774158180089
 20
148.6891022851132
 40
0.9999999999999984
 50
0.0
 51
360.0
 73
     1
 97
        0
 75
     0
 76
     1
 98
        1
 10
0.0
 20
0.0
  0
HATCH
  5
76
330
6C
100
AcDbEntity
  8
SUNPOU
 62
     7
100
AcDbHatch
 10
0.0
 20
0.0
 30
0.0
210
0.0
220
0.0
230
1.0
  2
SOLID
 70
     1
 71
     0
 91
        1
 92
        0
 93
        1
 72
     2
 10
126.477415818009
 20
148.6891022851132
 40
0.9999999999999984
 50
0.0
 51
360.0
 73
     1
 97
        0
 75
     0
 76
     1
 98
        1
 10
0.0
 20
0.0
  0
INSERT
  5
7C
330
6C
100
AcDbEntity
  8
SUNPOU
 62
     7
100
AcDbBlockReference
  2
SW_NOTE_0
 10
129.0695578288328
 20
131.4164184541723
 30
0.0
  0
INSERT
  5
81
330
6C
100
AcDbEntity
  8
SUNPOU
 62
     7
100
AcDbBlockReference
  2
SW_NOTE_0_1
 10
127.3151223442555
 20
128.7882292292039
 30
0.0
  0
INSERT
  5
86
330
6C
100
AcDbEntity
  8
SUNPOU
 62
     7
100
AcDbBlockReference
  2
SW_NOTE_0_2
 10
125.0373470097721
 20
126.4456459989435
 30
0.0
  0
INSERT
  5
8B
330
6C
100
AcDbEntity
  8
SUNPOU
 62
     7
100
AcDbBlockReference
  2
SW_NOTE_0_3
 10
123.366789376061
 20
125.2493071917553
 30
0.0
  0
INSERT
  5
90
330
6C
100
AcDbEntity
  8
SUNPOU
 62
     7
100
AcDbBlockReference
  2
SW_NOTE_0_4
 10
119.8994819521202
 20
123.4903917338195
 30
0.0
  0
INSERT
  5
95
330
6C
100
AcDbEntity
  8
SUNPOU
 62
     7
100
AcDbBlockReference
  2
SW_NOTE_0_5
 10
116.3229881437253
 20
122.5282298077083
 30
0.0
  0
INSERT
  5
9A
330
6C
100
AcDbEntity
  8
SUNPOU
 62
     7
100
AcDbBlockReference
  2
SW_NOTE_0_6
 10
114.030441370916
 20
122.4185872682462
 30
0.0
  0
INSERT
  5
9F
330
6C
100
AcDbEntity
  8
SUNPOU
 62
     7
100
AcDbBlockReference
  2
SW_NOTE_0_7
 10
110.6145197559893
 20
122.6089953349696
 30
0.0
  0
INSERT
  5
A4
330
6C
100
AcDbEntity
  8
SUNPOU
 62
     7
100
AcDbBlockReference
  2
SW_NOTE_0_8
 10
107.1556131185092
 20
123.6135683527914
 30
0.0
  0
INSERT
  5
A9
330
6C
100
AcDbEntity
  8
SUNPOU
 62
     7
100
AcDbBlockReference
  2
SW_NOTE_0_9
 10
103.9054720376828
 20
125.3576824058836
 30
0.0
  0
INSERT
  5
AE
330
6C
100
AcDbEntity
  8
SUNPOU
 62
     7
100
AcDbBlockReference
  2
SW_NOTE_0_10
 10
101.9275387760989
 20
128.0293828383202
 30
0.0
  0
INSERT
  5
B3
330
6C
100
AcDbEntity
  8
SUNPOU
 62
     7
100
AcDbBlockReference
  2
SW_NOTE_0_11
 10
100.2600188334645
 20
130.0813482803437
 30
0.0
  0
INSERT
  5
B8
330
6C
100
AcDbEntity
  8
SUNPOU
 62
     7
100
AcDbBlockReference
  2
SW_NOTE_0_12
 10
98.85188970456233
 20
132.5172494186858
 30
0.0
  0
INSERT
  5
BD
330
6C
100
AcDbEntity
  8
SUNPOU
 62
     7
100
AcDbBlockReference
  2
SW_NOTE_0_13
 10
97.95084226128173
 20
134.933990104188
 30
0.0
  0
INSERT
  5
C2
330
6C
100
AcDbEntity
  8
SUNPOU
 62
     7
100
AcDbBlockReference
  2
SW_NOTE_0_14
 10
103.7933885634275
 20
136.6869649540346
 30
0.0
  0
INSERT
  5
C7
330
6C
100
AcDbEntity
  8
SUNPOU
 62
     7
100
AcDbBlockReference
  2
SW_NOTE_0_15
 10
102.3385267287823
 20
145.9751825616899
 30
0.0
  0
ENDBLK
  5
6E
330
6C
100
AcDbEntity
  8
0
100
AcDbBlockEnd
  0
BLOCK
  5
78
330
77
100
AcDbEntity
  8
0
100
AcDbBlockBegin
  2
SW_NOTE_0
 70
     0
 10
0.0
 20
0.0
 30
0.0
  3
SW_NOTE_0
  1

  0
MTEXT
  5
7B
330
77
100
AcDbEntity
  8
SUNPOU
 62
     0
100
AcDbMText
 10
-2.637032721111653
 20
3.34277889334214
 30
0.0
 40
3.0
 41
0.0
 71
     2
 72
     1
  1
ン
  7
SLDTEXTSTYLE0
 11
0.4539904997395447
 21
0.8910065241883689
 31
0.0
 73
     1
 44
1.0
1001
ACAD
1000
MTEXTBEGIN
1070
    73
1070
     1
1070
    44
1040
1.0
1070
    74
1070
     0
1000
MTEXTEND
  0
ENDBLK
  5
79
330
77
100
AcDbEntity
  8
0
100
AcDbBlockEnd
  0
BLOCK
  5
7E
330
7D
100
AcDbEntity
  8
0
100
AcDbBlockBegin
  2
SW_NOTE_0_1
 70
     0
 10
0.0
 20
0.0
 30
0.0
  3
SW_NOTE_0_1
  1

  0
MTEXT
  5
80
330
7D
100
AcDbEntity
  8
SUNPOU
 62
     0
100
AcDbMText
 10
-2.016502805525288
 20
3.749910497237995
 30
0.0
 40
3.0
 41
0.0
 71
     2
 72
     1
  1
ョ
  7
SLDTEXTSTYLE0
 11
0.6018150231520467
 21
0.7986355100472941
 31
0.0
 73
     1
 44
1.0
1001
ACAD
1000
MTEXTBEGIN
1070
    73
1070
     1
1070
    44
1040
1.0
1070
    74
1070
     0
1000
MTEXTEND
  0
ENDBLK
  5
7F
330
7D
100
AcDbEntity
  8
0
100
AcDbBlockEnd
  0
BLOCK
  5
83
330
82
100
AcDbEntity
  8
0
100
AcDbBlockBegin
  2
SW_NOTE_0_2
 70
     0
 10
0.0
 20
0.0
 30
0.0
  3
SW_NOTE_0_2
  1

  0
MTEXT
  5
85
330
82
100
AcDbEntity
  8
SUNPOU
 62
     0
100
AcDbMText
 10
-1.334702472592708
 20
4.043102968221578
 30
0.0
 40
3.0
 41
0.0
 71
     2
 72
     1
  1
シ
  7
SLDTEXTSTYLE0
 11
0.7313537016191694
 21
0.6819983600624998
 31
0.0
 73
     1
 44
1.0
1001
ACAD
1000
MTEXTBEGIN
1070
    73
1070
     1
1070
    44
1040
1.0
1070
    74
1070
     0
1000
MTEXTEND
  0
ENDBLK
  5
84
330
82
100
AcDbEntity
  8
0
100
AcDbBlockEnd
  0
BLOCK
  5
88
330
87
100
AcDbEntity
  8
0
100
AcDbBlockBegin
  2
SW_NOTE_0_3
 70
     0
 10
0.0
 20
0.0
 30
0.0
  3
SW_NOTE_0_3
  1

  0
MTEXT
  5
8A
330
87
100
AcDbEntity
  8
SUNPOU
 62
     0
100
AcDbMText
 10
-1.359288854998821
 20
3.728378660864284
 30
0.0
 40
3.0
 41
0.0
 71
     2
 72
     1
  1
ｰ
  7
SLDTEXTSTYLE0
 11
0.8386705679454234
 21
0.5446390350150282
 31
0.0
 73
     1
 44
1.0
1001
ACAD
1000
MTEXTBEGIN
1070
    73
1070
     1
1070
    44
1040
1.0
1070
    74
1070
     0
1000
MTEXTEND
  0
ENDBLK
  5
89
330
87
100
AcDbEntity
  8
0
100
AcDbBlockEnd
  0
BLOCK
  5
8D
330
8C
100
AcDbEntity
  8
0
100
AcDbBlockBegin
  2
SW_NOTE_0_4
 70
     0
 10
0.0
 20
0.0
 30
0.0
  3
SW_NOTE_0_4
  1

  0
MTEXT
  5
8F
330
8C
100
AcDbEntity
  8
SUNPOU
 62
     0
100
AcDbMText
 10
0.128612592231514
 20
4.255769155288705
 30
0.0
 40
3.0
 41
0.0
 71
     2
 72
     1
  1
レ
  7
SLDTEXTSTYLE0
 11
0.9205048534524399
 21
0.3907311284892745
 31
0.0
 73
     1
 44
1.0
1001
ACAD
1000
MTEXTBEGIN
1070
    73
1070
     1
1070
    44
1040
1.0
1070
    74
1070
     0
1000
MTEXTEND
  0
ENDBLK
  5
8E
330
8C
100
AcDbEntity
  8
0
100
AcDbBlockEnd
  0
BLOCK
  5
92
330
91
100
AcDbEntity
  8
0
100
AcDbBlockBegin
  2
SW_NOTE_0_5
 70
     0
 10
0.0
 20
0.0
 30
0.0
  3
SW_NOTE_0_5
  1

  0
MTEXT
  5
94
330
91
100
AcDbEntity
  8
SUNPOU
 62
     0
100
AcDbMText
 10
0.8656652363516064
 20
4.168781116892519
 30
0.0
 40
3.0
 41
0.0
 71
     2
 72
     1
  1
ポ
  7
SLDTEXTSTYLE0
 11
0.9743700647852351
 21
0.2249510543438655
 31
0.0
 73
     1
 44
1.0
1001
ACAD
1000
MTEXTBEGIN
1070
    73
1070
     1
1070
    44
1040
1.0
1070
    74
1070
     0
1000
MTEXTEND
  0
ENDBLK
  5
93
330
91
100
AcDbEntity
  8
0
100
AcDbBlockEnd
  0
BLOCK
  5
97
330
96
100
AcDbEntity
  8
0
100
AcDbBlockBegin
  2
SW_NOTE_0_6
 70
     0
 10
0.0
 20
0.0
 30
0.0
  3
SW_NOTE_0_6
  1

  0
MTEXT
  5
99
330
96
100
AcDbEntity
  8
SUNPOU
 62
     0
100
AcDbMText
 10
0.6870106509221098
 20
3.908515062735706
 30
0.0
 40
3.0
 41
0.0
 71
     2
 72
     1
  1
ｰ
  7
SLDTEXTSTYLE0
 11
0.9986295347545738
 21
0.052335956242944
 31
0.0
 73
     1
 44
1.0
1001
ACAD
1000
MTEXTBEGIN
1070
    73
1070
     1
1070
    44
1040
1.0
1070
    74
1070
     0
1000
MTEXTEND
  0
ENDBLK
  5
98
330
96
100
AcDbEntity
  8
0
100
AcDbBlockEnd
  0
BLOCK
  5
9C
330
9B
100
AcDbEntity
  8
0
100
AcDbBlockBegin
  2
SW_NOTE_0_7
 70
     0
 10
0.0
 20
0.0
 30
0.0
  3
SW_NOTE_0_7
  1

  0
MTEXT
  5
9E
330
9B
100
AcDbEntity
  8
SUNPOU
 62
     0
100
AcDbMText
 10
1.981202637250267
 20
3.768679929649076
 30
0.0
 40
3.0
 41
0.0
 71
     2
 72
     1
  1
コ
  7
SLDTEXTSTYLE0
 11
0.9986295347545738
 21
-0.052335956242944
 31
0.0
 73
     1
 44
1.0
1001
ACAD
1000
MTEXTBEGIN
1070
    73
1070
     1
1070
    44
1040
1.0
1070
    74
1070
     0
1000
MTEXTEND
  0
ENDBLK
  5
9D
330
9B
100
AcDbEntity
  8
0
100
AcDbBlockEnd
  0
BLOCK
  5
A1
330
A0
100
AcDbEntity
  8
0
100
AcDbBlockBegin
  2
SW_NOTE_0_8
 70
     0
 10
0.0
 20
0.0
 30
0.0
  3
SW_NOTE_0_8
  1

  0
MTEXT
  5
A3
330
A0
100
AcDbEntity
  8
SUNPOU
 62
     0
100
AcDbMText
 10
2.605528119445796
 20
3.367392985792486
 30
0.0
 40
3.0
 41
0.0
 71
     2
 72
     1
  1
部
  7
SLDTEXTSTYLE0
 11
0.9743700647852351
 21
-0.2249510543438655
 31
0.0
 73
     1
 44
1.0
1001
ACAD
1000
MTEXTBEGIN
1070
    73
1070
     1
1070
    44
1040
1.0
1070
    74
1070
     0
1000
MTEXTEND
  0
ENDBLK
  5
A2
330
A0
100
AcDbEntity
  8
0
100
AcDbBlockEnd
  0
BLOCK
  5
A6
330
A5
100
AcDbEntity
  8
0
100
AcDbBlockBegin
  2
SW_NOTE_0_9
 70
     0
 10
0.0
 20
0.0
 30
0.0
  3
SW_NOTE_0_9
  1

  0
MTEXT
  5
A8
330
A5
100
AcDbEntity
  8
SUNPOU
 62
     0
100
AcDbMText
 10
3.150685948192815
 20
2.863789510045649
 30
0.0
 40
3.0
 41
0.0
 71
     2
 72
     1
  1
中
  7
SLDTEXTSTYLE0
 11
0.9205048534524399
 21
-0.3907311284892745
 31
0.0
 73
     1
 44
1.0
1001
ACAD
1000
MTEXTBEGIN
1070
    73
1070
     1
1070
    44
1040
1.0
1070
    74
1070
     0
1000
MTEXTEND
  0
ENDBLK
  5
A7
330
A5
100
AcDbEntity
  8
0
100
AcDbBlockEnd
  0
BLOCK
  5
AB
330
AA
100
AcDbEntity
  8
0
100
AcDbBlockBegin
  2
SW_NOTE_0_10
 70
     0
 10
0.0
 20
0.0
 30
0.0
  3
SW_NOTE_0_10
  1

  0
MTEXT
  5
AD
330
AA
100
AcDbEntity
  8
SUNPOU
 62
     0
100
AcDbMText
 10
2.626766689740669
 20
1.075655873665953
 30
0.0
 40
2.0
 41
0.0
 71
     2
 72
     1
  1
社
  7
SLDTEXTSTYLE0
 11
0.7313537016191694
 21
-0.6819983600624998
 31
0.0
 73
     1
 44
1.0
1001
ACAD
1000
MTEXTBEGIN
1070
    73
1070
     1
1070
    44
1040
1.0
1070
    74
1070
     0
1000
MTEXTEND
  0
ENDBLK
  5
AC
330
AA
100
AcDbEntity
  8
0
100
AcDbBlockEnd
  0
BLOCK
  5
B0
330
AF
100
AcDbEntity
  8
0
100
AcDbBlockBegin
  2
SW_NOTE_0_11
 70
     0
 10
0.0
 20
0.0
 30
0.0
  3
SW_NOTE_0_11
  1

  0
MTEXT
  5
B2
330
AF
100
AcDbEntity
  8
SUNPOU
 62
     0
100
AcDbMText
 10
2.773645883669642
 20
0.6031809951296819
 30
0.0
 40
2.0
 41
0.0
 71
     2
 72
     1
  1
会
  7
SLDTEXTSTYLE0
 11
0.6018150231520467
 21
-0.7986355100472941
 31
0.0
 73
     1
 44
1.0
1001
ACAD
1000
MTEXTBEGIN
1070
    73
1070
     1
1070
    44
1040
1.0
1070
    74
1070
     0
1000
MTEXTEND
  0
ENDBLK
  5
B1
330
AF
100
AcDbEntity
  8
0
100
AcDbBlockEnd
  0
BLOCK
  5
B5
330
B4
100
AcDbEntity
  8
0
100
AcDbBlockBegin
  2
SW_NOTE_0_12
 70
     0
 10
0.0
 20
0.0
 30
0.0
  3
SW_NOTE_0_12
  1

  0
MTEXT
  5
B7
330
B4
100
AcDbEntity
  8
SUNPOU
 62
     0
100
AcDbMText
 10
2.836249250955852
 20
0.1123787672807353
 30
0.0
 40
2.0
 41
0.0
 71
     2
 72
     1
  1
式
  7
SLDTEXTSTYLE0
 11
0.4539904997395447
 21
-0.8910065241883689
 31
0.0
 73
     1
 44
1.0
1001
ACAD
1000
MTEXTBEGIN
1070
    73
1070
     1
1070
    44
1040
1.0
1070
    74
1070
     0
1000
MTEXTEND
  0
ENDBLK
  5
B6
330
B4
100
AcDbEntity
  8
0
100
AcDbBlockEnd
  0
BLOCK
  5
BA
330
B9
100
AcDbEntity
  8
0
100
AcDbBlockBegin
  2
SW_NOTE_0_13
 70
     0
 10
0.0
 20
0.0
 30
0.0
  3
SW_NOTE_0_13
  1

  0
MTEXT
  5
BC
330
B9
100
AcDbEntity
  8
SUNPOU
 62
     0
100
AcDbMText
 10
2.812674619963151
 20
-0.3818380325456838
 30
0.0
 40
2.0
 41
0.0
 71
     2
 72
     1
  1
株
  7
SLDTEXTSTYLE0
 11
0.292371704722734
 21
-0.9563047559630362
 31
0.0
 73
     1
 44
1.0
1001
ACAD
1000
MTEXTBEGIN
1070
    73
1070
     1
1070
    44
1040
1.0
1070
    74
1070
     0
1000
MTEXTEND
  0
ENDBLK
  5
BB
330
B9
100
AcDbEntity
  8
0
100
AcDbBlockEnd
  0
BLOCK
  5
BF
330
BE
100
AcDbEntity
  8
0
100
AcDbBlockBegin
  2
SW_NOTE_0_14
 70
     0
 10
0.0
 20
0.0
 30
0.0
  3
SW_NOTE_0_14
  1

  0
MTEXT
  5
C1
330
BE
100
AcDbEntity
  8
SUNPOU
 62
     0
100
AcDbMText
 10
10.390625
 20
6.445338698859826
 30
0.0
 40
5.0
 41
0.0
 71
     2
 72
     1
  1
24.3.12
  7
SLDTEXTSTYLE0
 73
     1
 44
1.0
1001
ACAD
1000
MTEXTBEGIN
1070
    73
1070
     1
1070
    44
1040
1.0
1070
    74
1070
     0
1000
MTEXTEND
  0
ENDBLK
  5
C0
330
BE
100
AcDbEntity
  8
0
100
AcDbBlockEnd
  0
BLOCK
  5
C4
330
C3
100
AcDbEntity
  8
0
100
AcDbBlockBegin
  2
SW_NOTE_0_15
 70
     0
 10
0.0
 20
0.0
 30
0.0
  3
SW_NOTE_0_15
  1

  0
MTEXT
  5
C6
330
C3
100
AcDbEntity
  8
SUNPOU
 62
     0
100
AcDbMText
 10
11.875
 20
6.445338698859826
 30
0.0
 40
5.0
 41
0.0
 71
     2
 72
     1
  1
量産出図
  7
SLDTEXTSTYLE0
 73
     1
 44
1.0
1001
ACAD
1000
MTEXTBEGIN
1070
    73
1070
     1
1070
    44
1040
1.0
1070
    74
1070
     0
1000
MTEXTEND
  0
ENDBLK
  5
C5
330
C3
100
AcDbEntity
  8
0
100
AcDbBlockEnd
  0
BLOCK
  5
112
330
111
100
AcDbEntity
  8
0
100
AcDbBlockBegin
  2
SW_SYMBOL_T#_1
 70
     0
 10
0.0
 20
0.0
 30
0.0
  3
SW_SYMBOL_T#_1
  1

  0
LINE
  5
114
330
111
100
AcDbEntity
  8
SLD-0
 62
     0
100
AcDbLine
 10
-300.0
 20
0.0
 30
0.0
 11
800.0
 21
1650.0
 31
0.0
  0
LINE
  5
115
330
111
100
AcDbEntity
  8
SLD-0
 62
     0
100
AcDbLine
 10
800.0
 20
1650.0
 30
0.0
 11
1900.0
 21
0.0
 31
0.0
  0
LINE
  5
116
330
111
100
AcDbEntity
  8
SLD-0
 62
     0
100
AcDbLine
 10
-300.0
 20
0.0
 30
0.0
 11
1900.0
 21
0.0
 31
0.0
  0
MTEXT
  5
117
330
111
100
AcDbEntity
  8
SLD-0
 62
     0
100
AcDbMText
 10
800.0
 20
500.0
 30
0.0
 40
859.3749999999998
 41
0.0
 71
     5
 72
     1
  1
1
  7
SLDTEXTSTYLE0
 73
     1
 44
1.0
1001
ACAD
1000
MTEXTBEGIN
1070
    73
1070
     1
1070
    44
1040
1.0
1070
    74
1070
     0
1000
MTEXTEND
  0
ENDBLK
  5
113
330
111
100
AcDbEntity
  8
0
100
AcDbBlockEnd
  0
BLOCK
  5
11A
330
119
100
AcDbEntity
  8
0
100
AcDbBlockBegin
  2
SW_SYMBOL_T#_2
 70
     0
 10
0.0
 20
0.0
 30
0.0
  3
SW_SYMBOL_T#_2
  1

  0
LINE
  5
11C
330
119
100
AcDbEntity
  8
SLD-0
 62
     0
100
AcDbLine
 10
-300.0
 20
0.0
 30
0.0
 11
800.0
 21
1650.0
 31
0.0
  0
LINE
  5
11D
330
119
100
AcDbEntity
  8
SLD-0
 62
     0
100
AcDbLine
 10
800.0
 20
1650.0
 30
0.0
 11
1900.0
 21
0.0
 31
0.0
  0
LINE
  5
11E
330
119
100
AcDbEntity
  8
SLD-0
 62
     0
100
AcDbLine
 10
-300.0
 20
0.0
 30
0.0
 11
1900.0
 21
0.0
 31
0.0
  0
MTEXT
  5
11F
330
119
100
AcDbEntity
  8
SLD-0
 62
     0
100
AcDbMText
 10
800.0
 20
500.0
 30
0.0
 40
859.3749999999998
 41
0.0
 71
     5
 72
     1
  1
2
  7
SLDTEXTSTYLE0
 73
     1
 44
1.0
1001
ACAD
1000
MTEXTBEGIN
1070
    73
1070
     1
1070
    44
1040
1.0
1070
    74
1070
     0
1000
MTEXTEND
  0
ENDBLK
  5
11B
330
119
100
AcDbEntity
  8
0
100
AcDbBlockEnd
  0
BLOCK
  5
1D0
330
1CF
100
AcDbEntity
  8
0
100
AcDbBlockBegin
  2
SW_TABLEANNOTATION_0
 70
     0
 10
0.0
 20
0.0
 30
0.0
  3
SW_TABLEANNOTATION_0
  1

  0
LINE
  5
1D2
330
1CF
100
AcDbEntity
  8
SLD-0
 62
     0
100
AcDbLine
 10
0.0
 20
0.0
 30
0.0
 11
0.0
 21
-6.000000000000005
 31
0.0
  0
LINE
  5
1D3
330
1CF
100
AcDbEntity
  8
SLD-0
 62
     0
100
AcDbLine
 10
0.0
 20
-6.000000000000005
 30
0.0
 11
0.0
 21
-12.00000000000001
 31
0.0
  0
LINE
  5
1D4
330
1CF
100
AcDbEntity
  8
SLD-0
 62
     0
100
AcDbLine
 10
0.0
 20
-12.00000000000001
 30
0.0
 11
0.0
 21
-18.00000000000001
 31
0.0
  0
LINE
  5
1D5
330
1CF
100
AcDbEntity
  8
SLD-0
 62
     0
100
AcDbLine
 10
25.00000000000002
 20
-12.00000000000001
 30
0.0
 11
25.00000000000002
 21
-18.00000000000001
 31
0.0
  0
LINE
  5
1D6
330
1CF
100
AcDbEntity
  8
SLD-0
 62
     0
100
AcDbLine
 10
0.0
 20
-18.00000000000001
 30
0.0
 11
0.0
 21
-24.00000000000002
 31
0.0
  0
LINE
  5
1D7
330
1CF
100
AcDbEntity
  8
SLD-0
 62
     0
100
AcDbLine
 10
25.00000000000002
 20
-18.00000000000001
 30
0.0
 11
25.00000000000002
 21
-24.00000000000002
 31
0.0
  0
LINE
  5
1D8
330
1CF
100
AcDbEntity
  8
SLD-0
 62
     0
100
AcDbLine
 10
0.0
 20
-24.00000000000002
 30
0.0
 11
0.0
 21
-30.00000000000003
 31
0.0
  0
LINE
  5
1D9
330
1CF
100
AcDbEntity
  8
SLD-0
 62
     0
100
AcDbLine
 10
25.00000000000002
 20
-24.00000000000002
 30
0.0
 11
25.00000000000002
 21
-30.00000000000003
 31
0.0
  0
LINE
  5
1DA
330
1CF
100
AcDbEntity
  8
SLD-0
 62
     0
100
AcDbLine
 10
0.0
 20
-30.00000000000003
 30
0.0
 11
0.0
 21
-36.00000000000003
 31
0.0
  0
LINE
  5
1DB
330
1CF
100
AcDbEntity
  8
SLD-0
 62
     0
100
AcDbLine
 10
0.0
 20
-36.00000000000003
 30
0.0
 11
0.0
 21
-42.00000000000003
 31
0.0
  0
LINE
  5
1DC
330
1CF
100
AcDbEntity
  8
SLD-0
 62
     0
100
AcDbLine
 10
0.0
 20
-42.00000000000003
 30
0.0
 11
0.0
 21
-48.00000000000004
 31
0.0
  0
LINE
  5
1DD
330
1CF
100
AcDbEntity
  8
SLD-0
 62
     0
100
AcDbLine
 10
0.0
 20
-48.00000000000004
 30
0.0
 11
0.0
 21
-54.00000000000005
 31
0.0
  0
LINE
  5
1DE
330
1CF
100
AcDbEntity
  8
SLD-0
 62
     0
100
AcDbLine
 10
0.0
 20
-54.00000000000005
 30
0.0
 11
0.0
 21
-60.00000000000006
 31
0.0
  0
LINE
  5
1DF
330
1CF
100
AcDbEntity
  8
SLD-0
 62
     0
100
AcDbLine
 10
0.0
 20
-60.00000000000006
 30
0.0
 11
0.0
 21
-66.00000000000005
 31
0.0
  0
LINE
  5
1E0
330
1CF
100
AcDbEntity
  8
SLD-0
 62
     0
100
AcDbLine
 10
0.0
 20
-66.00000000000005
 30
0.0
 11
0.0
 21
-72.00000000000006
 31
0.0
  0
LINE
  5
1E1
330
1CF
100
AcDbEntity
  8
SLD-0
 62
     0
100
AcDbLine
 10
0.0
 20
-72.00000000000006
 30
0.0
 11
0.0
 21
-80.00000000000007
 31
0.0
  0
LINE
  5
1E2
330
1CF
100
AcDbEntity
  8
SLD-0
 62
     0
100
AcDbLine
 10
25.00000000000002
 20
-72.00000000000006
 30
0.0
 11
25.00000000000002
 21
-80.00000000000007
 31
0.0
  0
LINE
  5
1E3
330
1CF
100
AcDbEntity
  8
SLD-0
 62
     0
100
AcDbLine
 10
0.0
 20
-80.00000000000007
 30
0.0
 11
0.0
 21
-86.00000000000006
 31
0.0
  0
LINE
  5
1E4
330
1CF
100
AcDbEntity
  8
SLD-0
 62
     0
100
AcDbLine
 10
25.00000000000002
 20
-80.00000000000007
 30
0.0
 11
25.00000000000002
 21
-86.00000000000006
 31
0.0
  0
LINE
  5
1E5
330
1CF
100
AcDbEntity
  8
SLD-0
 62
     0
100
AcDbLine
 10
0.0
 20
-86.00000000000006
 30
0.0
 11
0.0
 21
-92.00000000000008
 31
0.0
  0
LINE
  5
1E6
330
1CF
100
AcDbEntity
  8
SLD-0
 62
     0
100
AcDbLine
 10
0.0
 20
-92.00000000000008
 30
0.0
 11
0.0
 21
-98.00000000000009
 31
0.0
  0
LINE
  5
1E7
330
1CF
100
AcDbEntity
  8
SLD-0
 62
     0
100
AcDbLine
 10
0.0
 20
-98.00000000000009
 30
0.0
 11
0.0
 21
-104.0000000000001
 31
0.0
  0
LINE
  5
1E8
330
1CF
100
AcDbEntity
  8
SLD-0
 62
     0
100
AcDbLine
 10
0.0
 20
-104.0000000000001
 30
0.0
 11
0.0
 21
-110.0000000000001
 31
0.0
  0
LINE
  5
1E9
330
1CF
100
AcDbEntity
  8
SLD-0
 62
     0
100
AcDbLine
 10
0.0
 20
-110.0000000000001
 30
0.0
 11
0.0
 21
-116.0000000000001
 31
0.0
  0
LINE
  5
1EA
330
1CF
100
AcDbEntity
  8
SLD-0
 62
     0
100
AcDbLine
 10
0.0
 20
-116.0000000000001
 30
0.0
 11
0.0
 21
-140.0000000000001
 31
0.0
  0
LINE
  5
1EB
330
1CF
100
AcDbEntity
  8
SLD-0
 62
     0
100
AcDbLine
 10
0.0
 20
-140.0000000000001
 30
0.0
 11
0.0
 21
-158.0000000000001
 31
0.0
  0
LINE
  5
1EC
330
1CF
100
AcDbEntity
  8
SLD-0
 62
     0
100
AcDbLine
 10
55.0
 20
0.0
 30
0.0
 11
55.0
 21
-6.000000000000005
 31
0.0
  0
LINE
  5
1ED
330
1CF
100
AcDbEntity
  8
SLD-0
 62
     0
100
AcDbLine
 10
55.0
 20
-6.000000000000005
 30
0.0
 11
55.0
 21
-12.00000000000001
 31
0.0
  0
LINE
  5
1EE
330
1CF
100
AcDbEntity
  8
SLD-0
 62
     0
100
AcDbLine
 10
55.0
 20
-12.00000000000001
 30
0.0
 11
55.0
 21
-18.00000000000001
 31
0.0
  0
LINE
  5
1EF
330
1CF
100
AcDbEntity
  8
SLD-0
 62
     0
100
AcDbLine
 10
55.0
 20
-18.00000000000001
 30
0.0
 11
55.0
 21
-24.00000000000002
 31
0.0
  0
LINE
  5
1F0
330
1CF
100
AcDbEntity
  8
SLD-0
 62
     0
100
AcDbLine
 10
55.0
 20
-24.00000000000002
 30
0.0
 11
55.0
 21
-30.00000000000003
 31
0.0
  0
LINE
  5
1F1
330
1CF
100
AcDbEntity
  8
SLD-0
 62
     0
100
AcDbLine
 10
55.0
 20
-30.00000000000003
 30
0.0
 11
55.0
 21
-36.00000000000003
 31
0.0
  0
LINE
  5
1F2
330
1CF
100
AcDbEntity
  8
SLD-0
 62
     0
100
AcDbLine
 10
55.0
 20
-36.00000000000003
 30
0.0
 11
55.0
 21
-42.00000000000003
 31
0.0
  0
LINE
  5
1F3
330
1CF
100
AcDbEntity
  8
SLD-0
 62
     0
100
AcDbLine
 10
55.0
 20
-42.00000000000003
 30
0.0
 11
55.0
 21
-48.00000000000004
 31
0.0
  0
LINE
  5
1F4
330
1CF
100
AcDbEntity
  8
SLD-0
 62
     0
100
AcDbLine
 10
55.0
 20
-48.00000000000004
 30
0.0
 11
55.0
 21
-54.00000000000005
 31
0.0
  0
LINE
  5
1F5
330
1CF
100
AcDbEntity
  8
SLD-0
 62
     0
100
AcDbLine
 10
55.0
 20
-54.00000000000005
 30
0.0
 11
55.0
 21
-60.00000000000006
 31
0.0
  0
LINE
  5
1F6
330
1CF
100
AcDbEntity
  8
SLD-0
 62
     0
100
AcDbLine
 10
55.0
 20
-60.00000000000006
 30
0.0
 11
55.0
 21
-66.00000000000005
 31
0.0
  0
LINE
  5
1F7
330
1CF
100
AcDbEntity
  8
SLD-0
 62
     0
100
AcDbLine
 10
55.0
 20
-66.00000000000005
 30
0.0
 11
55.0
 21
-72.00000000000006
 31
0.0
  0
LINE
  5
1F8
330
1CF
100
AcDbEntity
  8
SLD-0
 62
     0
100
AcDbLine
 10
55.0
 20
-72.00000000000006
 30
0.0
 11
55.0
 21
-80.00000000000007
 31
0.0
  0
LINE
  5
1F9
330
1CF
100
AcDbEntity
  8
SLD-0
 62
     0
100
AcDbLine
 10
55.0
 20
-80.00000000000007
 30
0.0
 11
55.0
 21
-86.00000000000006
 31
0.0
  0
LINE
  5
1FA
330
1CF
100
AcDbEntity
  8
SLD-0
 62
     0
100
AcDbLine
 10
55.0
 20
-86.00000000000006
 30
0.0
 11
55.0
 21
-92.00000000000008
 31
0.0
  0
LINE
  5
1FB
330
1CF
100
AcDbEntity
  8
SLD-0
 62
     0
100
AcDbLine
 10
55.0
 20
-92.00000000000008
 30
0.0
 11
55.0
 21
-98.00000000000009
 31
0.0
  0
LINE
  5
1FC
330
1CF
100
AcDbEntity
  8
SLD-0
 62
     0
100
AcDbLine
 10
55.0
 20
-98.00000000000009
 30
0.0
 11
55.0
 21
-104.0000000000001
 31
0.0
  0
LINE
  5
1FD
330
1CF
100
AcDbEntity
  8
SLD-0
 62
     0
100
AcDbLine
 10
55.0
 20
-104.0000000000001
 30
0.0
 11
55.0
 21
-110.0000000000001
 31
0.0
  0
LINE
  5
1FE
330
1CF
100
AcDbEntity
  8
SLD-0
 62
     0
100
AcDbLine
 10
55.0
 20
-110.0000000000001
 30
0.0
 11
55.0
 21
-116.0000000000001
 31
0.0
  0
LINE
  5
1FF
330
1CF
100
AcDbEntity
  8
SLD-0
 62
     0
100
AcDbLine
 10
55.0
 20
-116.0000000000001
 30
0.0
 11
55.0
 21
-140.0000000000001
 31
0.0
  0
LINE
  5
200
330
1CF
100
AcDbEntity
  8
SLD-0
 62
     0
100
AcDbLine
 10
55.0
 20
-140.0000000000001
 30
0.0
 11
55.0
 21
-158.0000000000001
 31
0.0
  0
LINE
  5
201
330
1CF
100
AcDbEntity
  8
SLD-0
 62
     0
100
AcDbLine
 10
124.9999999999999
 20
0.0
 30
0.0
 11
124.9999999999999
 21
-6.000000000000005
 31
0.0
  0
LINE
  5
202
330
1CF
100
AcDbEntity
  8
SLD-0
 62
     0
100
AcDbLine
 10
124.9999999999999
 20
-6.000000000000005
 30
0.0
 11
124.9999999999999
 21
-12.00000000000001
 31
0.0
  0
LINE
  5
203
330
1CF
100
AcDbEntity
  8
SLD-0
 62
     0
100
AcDbLine
 10
124.9999999999999
 20
-12.00000000000001
 30
0.0
 11
124.9999999999999
 21
-18.00000000000001
 31
0.0
  0
LINE
  5
204
330
1CF
100
AcDbEntity
  8
SLD-0
 62
     0
100
AcDbLine
 10
124.9999999999999
 20
-18.00000000000001
 30
0.0
 11
124.9999999999999
 21
-24.00000000000002
 31
0.0
  0
LINE
  5
205
330
1CF
100
AcDbEntity
  8
SLD-0
 62
     0
100
AcDbLine
 10
124.9999999999999
 20
-24.00000000000002
 30
0.0
 11
124.9999999999999
 21
-30.00000000000003
 31
0.0
  0
LINE
  5
206
330
1CF
100
AcDbEntity
  8
SLD-0
 62
     0
100
AcDbLine
 10
124.9999999999999
 20
-30.00000000000003
 30
0.0
 11
124.9999999999999
 21
-36.00000000000003
 31
0.0
  0
LINE
  5
207
330
1CF
100
AcDbEntity
  8
SLD-0
 62
     0
100
AcDbLine
 10
124.9999999999999
 20
-36.00000000000003
 30
0.0
 11
124.9999999999999
 21
-42.00000000000003
 31
0.0
  0
LINE
  5
208
330
1CF
100
AcDbEntity
  8
SLD-0
 62
     0
100
AcDbLine
 10
124.9999999999999
 20
-42.00000000000003
 30
0.0
 11
124.9999999999999
 21
-48.00000000000004
 31
0.0
  0
LINE
  5
209
330
1CF
100
AcDbEntity
  8
SLD-0
 62
     0
100
AcDbLine
 10
124.9999999999999
 20
-48.00000000000004
 30
0.0
 11
124.9999999999999
 21
-54.00000000000005
 31
0.0
  0
LINE
  5
20A
330
1CF
100
AcDbEntity
  8
SLD-0
 62
     0
100
AcDbLine
 10
124.9999999999999
 20
-54.00000000000005
 30
0.0
 11
124.9999999999999
 21
-60.00000000000006
 31
0.0
  0
LINE
  5
20B
330
1CF
100
AcDbEntity
  8
SLD-0
 62
     0
100
AcDbLine
 10
124.9999999999999
 20
-60.00000000000006
 30
0.0
 11
124.9999999999999
 21
-66.00000000000005
 31
0.0
  0
LINE
  5
20C
330
1CF
100
AcDbEntity
  8
SLD-0
 62
     0
100
AcDbLine
 10
124.9999999999999
 20
-66.00000000000005
 30
0.0
 11
124.9999999999999
 21
-72.00000000000006
 31
0.0
  0
LINE
  5
20D
330
1CF
100
AcDbEntity
  8
SLD-0
 62
     0
100
AcDbLine
 10
124.9999999999999
 20
-72.00000000000006
 30
0.0
 11
124.9999999999999
 21
-80.00000000000007
 31
0.0
  0
LINE
  5
20E
330
1CF
100
AcDbEntity
  8
SLD-0
 62
     0
100
AcDbLine
 10
124.9999999999999
 20
-80.00000000000007
 30
0.0
 11
124.9999999999999
 21
-86.00000000000006
 31
0.0
  0
LINE
  5
20F
330
1CF
100
AcDbEntity
  8
SLD-0
 62
     0
100
AcDbLine
 10
124.9999999999999
 20
-86.00000000000006
 30
0.0
 11
124.9999999999999
 21
-92.00000000000008
 31
0.0
  0
LINE
  5
210
330
1CF
100
AcDbEntity
  8
SLD-0
 62
     0
100
AcDbLine
 10
124.9999999999999
 20
-92.00000000000008
 30
0.0
 11
124.9999999999999
 21
-98.00000000000009
 31
0.0
  0
LINE
  5
211
330
1CF
100
AcDbEntity
  8
SLD-0
 62
     0
100
AcDbLine
 10
124.9999999999999
 20
-98.00000000000009
 30
0.0
 11
124.9999999999999
 21
-104.0000000000001
 31
0.0
  0
LINE
  5
212
330
1CF
100
AcDbEntity
  8
SLD-0
 62
     0
100
AcDbLine
 10
124.9999999999999
 20
-104.0000000000001
 30
0.0
 11
124.9999999999999
 21
-110.0000000000001
 31
0.0
  0
LINE
  5
213
330
1CF
100
AcDbEntity
  8
SLD-0
 62
     0
100
AcDbLine
 10
124.9999999999999
 20
-110.0000000000001
 30
0.0
 11
124.9999999999999
 21
-116.0000000000001
 31
0.0
  0
LINE
  5
214
330
1CF
100
AcDbEntity
  8
SLD-0
 62
     0
100
AcDbLine
 10
124.9999999999999
 20
-116.0000000000001
 30
0.0
 11
124.9999999999999
 21
-140.0000000000001
 31
0.0
  0
LINE
  5
215
330
1CF
100
AcDbEntity
  8
SLD-0
 62
     0
100
AcDbLine
 10
124.9999999999999
 20
-140.0000000000001
 30
0.0
 11
124.9999999999999
 21
-158.0000000000001
 31
0.0
  0
LINE
  5
216
330
1CF
100
AcDbEntity
  8
SLD-0
 62
     0
100
AcDbLine
 10
0.0
 20
0.0
 30
0.0
 11
25.00000000000002
 21
0.0
 31
0.0
  0
LINE
  5
217
330
1CF
100
AcDbEntity
  8
SLD-0
 62
     0
100
AcDbLine
 10
0.0
 20
-6.000000000000005
 30
0.0
 11
25.00000000000002
 21
-6.000000000000005
 31
0.0
  0
LINE
  5
218
330
1CF
100
AcDbEntity
  8
SLD-0
 62
     0
100
AcDbLine
 10
25.00000000000002
 20
0.0
 30
0.0
 11
55.0
 21
0.0
 31
0.0
  0
LINE
  5
219
330
1CF
100
AcDbEntity
  8
SLD-0
 62
     0
100
AcDbLine
 10
25.00000000000002
 20
-6.000000000000005
 30
0.0
 11
55.0
 21
-6.000000000000005
 31
0.0
  0
LINE
  5
21A
330
1CF
100
AcDbEntity
  8
SLD-0
 62
     0
100
AcDbLine
 10
55.0
 20
0.0
 30
0.0
 11
124.9999999999999
 21
0.0
 31
0.0
  0
LINE
  5
21B
330
1CF
100
AcDbEntity
  8
SLD-0
 62
     0
100
AcDbLine
 10
55.0
 20
-6.000000000000005
 30
0.0
 11
124.9999999999999
 21
-6.000000000000005
 31
0.0
  0
LINE
  5
21C
330
1CF
100
AcDbEntity
  8
SLD-0
 62
     0
100
AcDbLine
 10
0.0
 20
-12.00000000000001
 30
0.0
 11
25.00000000000002
 21
-12.00000000000001
 31
0.0
  0
LINE
  5
21D
330
1CF
100
AcDbEntity
  8
SLD-0
 62
     0
100
AcDbLine
 10
25.00000000000002
 20
-12.00000000000001
 30
0.0
 11
55.0
 21
-12.00000000000001
 31
0.0
  0
LINE
  5
21E
330
1CF
100
AcDbEntity
  8
SLD-0
 62
     0
100
AcDbLine
 10
55.0
 20
-12.00000000000001
 30
0.0
 11
124.9999999999999
 21
-12.00000000000001
 31
0.0
  0
LINE
  5
21F
330
1CF
100
AcDbEntity
  8
SLD-0
 62
     0
100
AcDbLine
 10
0.0
 20
-12.00000000000001
 30
0.0
 11
25.00000000000002
 21
-12.00000000000001
 31
0.0
  0
LINE
  5
220
330
1CF
100
AcDbEntity
  8
SLD-0
 62
     0
100
AcDbLine
 10
25.00000000000002
 20
-18.00000000000001
 30
0.0
 11
55.0
 21
-18.00000000000001
 31
0.0
  0
LINE
  5
221
330
1CF
100
AcDbEntity
  8
SLD-0
 62
     0
100
AcDbLine
 10
55.0
 20
-18.00000000000001
 30
0.0
 11
124.9999999999999
 21
-18.00000000000001
 31
0.0
  0
LINE
  5
222
330
1CF
100
AcDbEntity
  8
SLD-0
 62
     0
100
AcDbLine
 10
25.00000000000002
 20
-24.00000000000002
 30
0.0
 11
55.0
 21
-24.00000000000002
 31
0.0
  0
LINE
  5
223
330
1CF
100
AcDbEntity
  8
SLD-0
 62
     0
100
AcDbLine
 10
55.0
 20
-24.00000000000002
 30
0.0
 11
124.9999999999999
 21
-24.00000000000002
 31
0.0
  0
LINE
  5
224
330
1CF
100
AcDbEntity
  8
SLD-0
 62
     0
100
AcDbLine
 10
0.0
 20
-30.00000000000003
 30
0.0
 11
25.00000000000002
 21
-30.00000000000003
 31
0.0
  0
LINE
  5
225
330
1CF
100
AcDbEntity
  8
SLD-0
 62
     0
100
AcDbLine
 10
25.00000000000002
 20
-30.00000000000003
 30
0.0
 11
55.0
 21
-30.00000000000003
 31
0.0
  0
LINE
  5
226
330
1CF
100
AcDbEntity
  8
SLD-0
 62
     0
100
AcDbLine
 10
55.0
 20
-30.00000000000003
 30
0.0
 11
124.9999999999999
 21
-30.00000000000003
 31
0.0
  0
LINE
  5
227
330
1CF
100
AcDbEntity
  8
SLD-0
 62
     0
100
AcDbLine
 10
0.0
 20
-36.00000000000003
 30
0.0
 11
25.00000000000002
 21
-36.00000000000003
 31
0.0
  0
LINE
  5
228
330
1CF
100
AcDbEntity
  8
SLD-0
 62
     0
100
AcDbLine
 10
25.00000000000002
 20
-36.00000000000003
 30
0.0
 11
55.0
 21
-36.00000000000003
 31
0.0
  0
LINE
  5
229
330
1CF
100
AcDbEntity
  8
SLD-0
 62
     0
100
AcDbLine
 10
55.0
 20
-36.00000000000003
 30
0.0
 11
124.9999999999999
 21
-36.00000000000003
 31
0.0
  0
LINE
  5
22A
330
1CF
100
AcDbEntity
  8
SLD-0
 62
     0
100
AcDbLine
 10
0.0
 20
-42.00000000000003
 30
0.0
 11
25.00000000000002
 21
-42.00000000000003
 31
0.0
  0
LINE
  5
22B
330
1CF
100
AcDbEntity
  8
SLD-0
 62
     0
100
AcDbLine
 10
25.00000000000002
 20
-42.00000000000003
 30
0.0
 11
55.0
 21
-42.00000000000003
 31
0.0
  0
LINE
  5
22C
330
1CF
100
AcDbEntity
  8
SLD-0
 62
     0
100
AcDbLine
 10
55.0
 20
-42.00000000000003
 30
0.0
 11
124.9999999999999
 21
-42.00000000000003
 31
0.0
  0
LINE
  5
22D
330
1CF
100
AcDbEntity
  8
SLD-0
 62
     0
100
AcDbLine
 10
0.0
 20
-48.00000000000004
 30
0.0
 11
25.00000000000002
 21
-48.00000000000004
 31
0.0
  0
LINE
  5
22E
330
1CF
100
AcDbEntity
  8
SLD-0
 62
     0
100
AcDbLine
 10
25.00000000000002
 20
-48.00000000000004
 30
0.0
 11
55.0
 21
-48.00000000000004
 31
0.0
  0
LINE
  5
22F
330
1CF
100
AcDbEntity
  8
SLD-0
 62
     0
100
AcDbLine
 10
55.0
 20
-48.00000000000004
 30
0.0
 11
124.9999999999999
 21
-48.00000000000004
 31
0.0
  0
LINE
  5
230
330
1CF
100
AcDbEntity
  8
SLD-0
 62
     0
100
AcDbLine
 10
0.0
 20
-54.00000000000005
 30
0.0
 11
25.00000000000002
 21
-54.00000000000005
 31
0.0
  0
LINE
  5
231
330
1CF
100
AcDbEntity
  8
SLD-0
 62
     0
100
AcDbLine
 10
25.00000000000002
 20
-54.00000000000005
 30
0.0
 11
55.0
 21
-54.00000000000005
 31
0.0
  0
LINE
  5
232
330
1CF
100
AcDbEntity
  8
SLD-0
 62
     0
100
AcDbLine
 10
55.0
 20
-54.00000000000005
 30
0.0
 11
124.9999999999999
 21
-54.00000000000005
 31
0.0
  0
LINE
  5
233
330
1CF
100
AcDbEntity
  8
SLD-0
 62
     0
100
AcDbLine
 10
0.0
 20
-60.00000000000006
 30
0.0
 11
25.00000000000002
 21
-60.00000000000006
 31
0.0
  0
LINE
  5
234
330
1CF
100
AcDbEntity
  8
SLD-0
 62
     0
100
AcDbLine
 10
25.00000000000002
 20
-60.00000000000006
 30
0.0
 11
55.0
 21
-60.00000000000006
 31
0.0
  0
LINE
  5
235
330
1CF
100
AcDbEntity
  8
SLD-0
 62
     0
100
AcDbLine
 10
55.0
 20
-60.00000000000006
 30
0.0
 11
124.9999999999999
 21
-60.00000000000006
 31
0.0
  0
LINE
  5
236
330
1CF
100
AcDbEntity
  8
SLD-0
 62
     0
100
AcDbLine
 10
0.0
 20
-66.00000000000005
 30
0.0
 11
25.00000000000002
 21
-66.00000000000005
 31
0.0
  0
LINE
  5
237
330
1CF
100
AcDbEntity
  8
SLD-0
 62
     0
100
AcDbLine
 10
25.00000000000002
 20
-66.00000000000005
 30
0.0
 11
55.0
 21
-66.00000000000005
 31
0.0
  0
LINE
  5
238
330
1CF
100
AcDbEntity
  8
SLD-0
 62
     0
100
AcDbLine
 10
55.0
 20
-66.00000000000005
 30
0.0
 11
124.9999999999999
 21
-66.00000000000005
 31
0.0
  0
LINE
  5
239
330
1CF
100
AcDbEntity
  8
SLD-0
 62
     0
100
AcDbLine
 10
0.0
 20
-72.00000000000006
 30
0.0
 11
25.00000000000002
 21
-72.00000000000006
 31
0.0
  0
LINE
  5
23A
330
1CF
100
AcDbEntity
  8
SLD-0
 62
     0
100
AcDbLine
 10
25.00000000000002
 20
-72.00000000000006
 30
0.0
 11
55.0
 21
-72.00000000000006
 31
0.0
  0
LINE
  5
23B
330
1CF
100
AcDbEntity
  8
SLD-0
 62
     0
100
AcDbLine
 10
55.0
 20
-72.00000000000006
 30
0.0
 11
124.9999999999999
 21
-72.00000000000006
 31
0.0
  0
LINE
  5
23C
330
1CF
100
AcDbEntity
  8
SLD-0
 62
     0
100
AcDbLine
 10
0.0
 20
-72.00000000000006
 30
0.0
 11
25.00000000000002
 21
-72.00000000000006
 31
0.0
  0
LINE
  5
23D
330
1CF
100
AcDbEntity
  8
SLD-0
 62
     0
100
AcDbLine
 10
25.00000000000002
 20
-80.00000000000007
 30
0.0
 11
55.0
 21
-80.00000000000007
 31
0.0
  0
LINE
  5
23E
330
1CF
100
AcDbEntity
  8
SLD-0
 62
     0
100
AcDbLine
 10
55.0
 20
-80.00000000000007
 30
0.0
 11
124.9999999999999
 21
-80.00000000000007
 31
0.0
  0
LINE
  5
23F
330
1CF
100
AcDbEntity
  8
SLD-0
 62
     0
100
AcDbLine
 10
0.0
 20
-86.00000000000006
 30
0.0
 11
25.00000000000002
 21
-86.00000000000006
 31
0.0
  0
LINE
  5
240
330
1CF
100
AcDbEntity
  8
SLD-0
 62
     0
100
AcDbLine
 10
25.00000000000002
 20
-86.00000000000006
 30
0.0
 11
55.0
 21
-86.00000000000006
 31
0.0
  0
LINE
  5
241
330
1CF
100
AcDbEntity
  8
SLD-0
 62
     0
100
AcDbLine
 10
55.0
 20
-86.00000000000006
 30
0.0
 11
124.9999999999999
 21
-86.00000000000006
 31
0.0
  0
LINE
  5
242
330
1CF
100
AcDbEntity
  8
SLD-0
 62
     0
100
AcDbLine
 10
0.0
 20
-92.00000000000008
 30
0.0
 11
25.00000000000002
 21
-92.00000000000008
 31
0.0
  0
LINE
  5
243
330
1CF
100
AcDbEntity
  8
SLD-0
 62
     0
100
AcDbLine
 10
25.00000000000002
 20
-92.00000000000008
 30
0.0
 11
55.0
 21
-92.00000000000008
 31
0.0
  0
LINE
  5
244
330
1CF
100
AcDbEntity
  8
SLD-0
 62
     0
100
AcDbLine
 10
55.0
 20
-92.00000000000008
 30
0.0
 11
124.9999999999999
 21
-92.00000000000008
 31
0.0
  0
LINE
  5
245
330
1CF
100
AcDbEntity
  8
SLD-0
 62
     0
100
AcDbLine
 10
0.0
 20
-98.00000000000009
 30
0.0
 11
25.00000000000002
 21
-98.00000000000009
 31
0.0
  0
LINE
  5
246
330
1CF
100
AcDbEntity
  8
SLD-0
 62
     0
100
AcDbLine
 10
25.00000000000002
 20
-98.00000000000009
 30
0.0
 11
55.0
 21
-98.00000000000009
 31
0.0
  0
LINE
  5
247
330
1CF
100
AcDbEntity
  8
SLD-0
 62
     0
100
AcDbLine
 10
55.0
 20
-98.00000000000009
 30
0.0
 11
124.9999999999999
 21
-98.00000000000009
 31
0.0
  0
LINE
  5
248
330
1CF
100
AcDbEntity
  8
SLD-0
 62
     0
100
AcDbLine
 10
0.0
 20
-104.0000000000001
 30
0.0
 11
25.00000000000002
 21
-104.0000000000001
 31
0.0
  0
LINE
  5
249
330
1CF
100
AcDbEntity
  8
SLD-0
 62
     0
100
AcDbLine
 10
25.00000000000002
 20
-104.0000000000001
 30
0.0
 11
55.0
 21
-104.0000000000001
 31
0.0
  0
LINE
  5
24A
330
1CF
100
AcDbEntity
  8
SLD-0
 62
     0
100
AcDbLine
 10
55.0
 20
-104.0000000000001
 30
0.0
 11
124.9999999999999
 21
-104.0000000000001
 31
0.0
  0
LINE
  5
24B
330
1CF
100
AcDbEntity
  8
SLD-0
 62
     0
100
AcDbLine
 10
0.0
 20
-110.0000000000001
 30
0.0
 11
25.00000000000002
 21
-110.0000000000001
 31
0.0
  0
LINE
  5
24C
330
1CF
100
AcDbEntity
  8
SLD-0
 62
     0
100
AcDbLine
 10
25.00000000000002
 20
-110.0000000000001
 30
0.0
 11
55.0
 21
-110.0000000000001
 31
0.0
  0
LINE
  5
24D
330
1CF
100
AcDbEntity
  8
SLD-0
 62
     0
100
AcDbLine
 10
55.0
 20
-110.0000000000001
 30
0.0
 11
124.9999999999999
 21
-110.0000000000001
 31
0.0
  0
LINE
  5
24E
330
1CF
100
AcDbEntity
  8
SLD-0
 62
     0
100
AcDbLine
 10
0.0
 20
-116.0000000000001
 30
0.0
 11
25.00000000000002
 21
-116.0000000000001
 31
0.0
  0
LINE
  5
24F
330
1CF
100
AcDbEntity
  8
SLD-0
 62
     0
100
AcDbLine
 10
25.00000000000002
 20
-116.0000000000001
 30
0.0
 11
55.0
 21
-116.0000000000001
 31
0.0
  0
LINE
  5
250
330
1CF
100
AcDbEntity
  8
SLD-0
 62
     0
100
AcDbLine
 10
55.0
 20
-116.0000000000001
 30
0.0
 11
124.9999999999999
 21
-116.0000000000001
 31
0.0
  0
LINE
  5
251
330
1CF
100
AcDbEntity
  8
SLD-0
 62
     0
100
AcDbLine
 10
0.0
 20
-140.0000000000001
 30
0.0
 11
25.00000000000002
 21
-140.0000000000001
 31
0.0
  0
LINE
  5
252
330
1CF
100
AcDbEntity
  8
SLD-0
 62
     0
100
AcDbLine
 10
25.00000000000002
 20
-140.0000000000001
 30
0.0
 11
55.0
 21
-140.0000000000001
 31
0.0
  0
LINE
  5
253
330
1CF
100
AcDbEntity
  8
SLD-0
 62
     0
100
AcDbLine
 10
55.0
 20
-140.0000000000001
 30
0.0
 11
124.9999999999999
 21
-140.0000000000001
 31
0.0
  0
LINE
  5
254
330
1CF
100
AcDbEntity
  8
SLD-0
 62
     0
100
AcDbLine
 10
0.0
 20
-158.0000000000001
 30
0.0
 11
25.00000000000002
 21
-158.0000000000001
 31
0.0
  0
LINE
  5
255
330
1CF
100
AcDbEntity
  8
SLD-0
 62
     0
100
AcDbLine
 10
25.00000000000002
 20
-158.0000000000001
 30
0.0
 11
55.0
 21
-158.0000000000001
 31
0.0
  0
LINE
  5
256
330
1CF
100
AcDbEntity
  8
SLD-0
 62
     0
100
AcDbLine
 10
55.0
 20
-158.0000000000001
 30
0.0
 11
124.9999999999999
 21
-158.0000000000001
 31
0.0
  0
MTEXT
  5
257
330
1CF
100
AcDbEntity
  8
SLD-0
 62
     0
100
AcDbMText
 10
23.42638900503513
 20
-0.7828860597890453
 30
0.0
 40
3.5
 41
0.0
 71
     1
 72
     1
  1
型式
  7
SLDTEXTSTYLE0
 73
     1
 44
1.0
1001
ACAD
1000
MTEXTBEGIN
1070
    73
1070
     1
1070
    44
1040
1.0
1070
    74
1070
     0
1000
MTEXTEND
  0
MTEXT
  5
258
330
1CF
100
AcDbEntity
  8
SLD-0
 62
     0
100
AcDbMText
 10
83.88958374038329
 20
-0.7828860597890453
 30
0.0
 40
3.5
 41
0.0
 71
     1
 72
     1
  1
SS7300
  7
SLDTEXTSTYLE0
 73
     1
 44
1.0
1001
ACAD
1000
MTEXTBEGIN
1070
    73
1070
     1
1070
    44
1040
1.0
1070
    74
1070
     0
1000
MTEXTEND
  0
MTEXT
  5
259
330
1CF
100
AcDbEntity
  8
SLD-0
 62
     0
100
AcDbMText
 10
21.38958327472207
 20
-6.78288605978905
 30
0.0
 40
3.5
 41
0.0
 71
     1
 72
     1
  1
商品名
  7
SLDTEXTSTYLE0
 73
     1
 44
1.0
1001
ACAD
1000
MTEXTBEGIN
1070
    73
1070
     1
1070
    44
1040
1.0
1070
    74
1070
     0
1000
MTEXTEND
  0
MTEXT
  5
25A
330
1CF
100
AcDbEntity
  8
SLD-0
 62
     0
100
AcDbMText
 10
71.66874982416621
 20
-6.78288605978905
 30
0.0
 40
3.5
 41
0.0
 71
     1
 72
     1
  1
キャベツスライサー
  7
SLDTEXTSTYLE0
 73
     1
 44
1.0
1001
ACAD
1000
MTEXTBEGIN
1070
    73
1070
     1
1070
    44
1040
1.0
1070
    74
1070
     0
1000
MTEXTEND
  0
MTEXT
  5
25B
330
1CF
100
AcDbEntity
  8
SLD-0
 62
     0
100
AcDbMText
 10
4.352778010070279
 20
-16.74608056230664
 30
0.0
 40
3.5
 41
0.0
 71
     1
 72
     1
  1
外形寸法
  7
SLDTEXTSTYLE0
 73
     1
 44
1.0
1001
ACAD
1000
MTEXTBEGIN
1070
    73
1070
     1
1070
    44
1040
1.0
1070
    74
1070
     0
1000
MTEXTEND
  0
MTEXT
  5
25C
330
1CF
100
AcDbEntity
  8
SLD-0
 62
     0
100
AcDbMText
 10
8.426389005035117
 20
-20.81969155727148
 30
0.0
 40
3.5
 41
0.0
 71
     1
 72
     1
  1
(mm)
  7
SLDTEXTSTYLE0
 73
     1
 44
1.0
1001
ACAD
1000
MTEXTBEGIN
1070
    73
1070
     1
1070
    44
1040
1.0
1070
    74
1070
     0
1000
MTEXTEND
  0
MTEXT
  5
25D
330
1CF
100
AcDbEntity
  8
SLD-0
 62
     0
100
AcDbMText
 10
35.92638900503514
 20
-12.78288605978906
 30
0.0
 40
3.5
 41
0.0
 71
     1
 72
     1
  1
(幅)
  7
SLDTEXTSTYLE0
 73
     1
 44
1.0
1001
ACAD
1000
MTEXTBEGIN
1070
    73
1070
     1
1070
    44
1040
1.0
1070
    74
1070
     0
1000
MTEXTEND
  0
MTEXT
  5
25E
330
1CF
100
AcDbEntity
  8
SLD-0
 62
     0
100
AcDbMText
 10
86.94479163736096
 20
-12.78288605978906
 30
0.0
 40
3.5
 41
0.0
 71
     1
 72
     1
  1
360
  7
SLDTEXTSTYLE0
 73
     1
 44
1.0
1001
ACAD
1000
MTEXTBEGIN
1070
    73
1070
     1
1070
    44
1040
1.0
1070
    74
1070
     0
1000
MTEXTEND
  0
MTEXT
  5
25F
330
1CF
100
AcDbEntity
  8
SLD-0
 62
     0
100
AcDbMText
 10
33.88958374038337
 20
-18.78288605978906
 30
0.0
 40
3.5
 41
0.0
 71
     1
 72
     1
  1
(奥行)
  7
SLDTEXTSTYLE0
 73
     1
 44
1.0
1001
ACAD
1000
MTEXTBEGIN
1070
    73
1070
     1
1070
    44
1040
1.0
1070
    74
1070
     0
1000
MTEXTEND
  0
MTEXT
  5
260
330
1CF
100
AcDbEntity
  8
SLD-0
 62
     0
100
AcDbMText
 10
86.94479163736096
 20
-18.78288605978906
 30
0.0
 40
3.5
 41
0.0
 71
     1
 72
     1
  1
386
  7
SLDTEXTSTYLE0
 73
     1
 44
1.0
1001
ACAD
1000
MTEXTBEGIN
1070
    73
1070
     1
1070
    44
1040
1.0
1070
    74
1070
     0
1000
MTEXTEND
  0
MTEXT
  5
261
330
1CF
100
AcDbEntity
  8
SLD-0
 62
     0
100
AcDbMText
 10
33.88958374038337
 20
-24.78288605978907
 30
0.0
 40
3.5
 41
0.0
 71
     1
 72
     1
  1
(高さ)
  7
SLDTEXTSTYLE0
 73
     1
 44
1.0
1001
ACAD
1000
MTEXTBEGIN
1070
    73
1070
     1
1070
    44
1040
1.0
1070
    74
1070
     0
1000
MTEXTEND
  0
MTEXT
  5
262
330
1CF
100
AcDbEntity
  8
SLD-0
 62
     0
100
AcDbMText
 10
84.90798637270918
 20
-24.78288605978907
 30
0.0
 40
3.5
 41
0.0
 71
     1
 72
     1
  1
534.5
  7
SLDTEXTSTYLE0
 73
     1
 44
1.0
1001
ACAD
1000
MTEXTBEGIN
1070
    73
1070
     1
1070
    44
1040
1.0
1070
    74
1070
     0
1000
MTEXTEND
  0
MTEXT
  5
263
330
1CF
100
AcDbEntity
  8
SLD-0
 62
     0
100
AcDbMText
 10
14.26076252013442
 20
-30.52506864111121
 30
0.0
 40
3.5
 41
0.0
 71
     1
 72
     1
  1
製品質量 (kg)
  7
SLDTEXTSTYLE0
 73
     1
 44
1.0
1001
ACAD
1000
MTEXTBEGIN
1070
    73
1070
     1
1070
    44
1040
1.0
1070
    74
1070
     0
1000
MTEXTEND
  0
MTEXT
  5
264
330
1CF
100
AcDbEntity
  8
SLD-0
 62
     0
100
AcDbMText
 10
87.96319450251749
 20
-30.52506864111121
 30
0.0
 40
3.5
 41
0.0
 71
     1
 72
     1
  1
17
  7
SLDTEXTSTYLE0
 73
     1
 44
1.0
1001
ACAD
1000
MTEXTBEGIN
1070
    73
1070
     1
1070
    44
1040
1.0
1070
    74
1070
     0
1000
MTEXTEND
  0
MTEXT
  5
265
330
1CF
100
AcDbEntity
  8
SLD-0
 62
     0
100
AcDbMText
 10
19.35277801007029
 20
-36.78288605978908
 30
0.0
 40
3.5
 41
0.0
 71
     1
 72
     1
  1
定格電源
  7
SLDTEXTSTYLE0
 73
     1
 44
1.0
1001
ACAD
1000
MTEXTBEGIN
1070
    73
1070
     1
1070
    44
1040
1.0
1070
    74
1070
     0
1000
MTEXTEND
  0
MTEXT
  5
266
330
1CF
100
AcDbEntity
  8
SLD-0
 62
     0
100
AcDbMText
 10
80.83437491208306
 20
-36.78288605978908
 30
0.0
 40
3.5
 41
0.0
 71
     1
 72
     1
  1
単相 100V
  7
SLDTEXTSTYLE0
 73
     1
 44
1.0
1001
ACAD
1000
MTEXTBEGIN
1070
    73
1070
     1
1070
    44
1040
1.0
1070
    74
1070
     0
1000
MTEXTEND
  0
MTEXT
  5
267
330
1CF
100
AcDbEntity
  8
SLD-0
 62
     0
100
AcDbMText
 10
17.31597274541852
 20
-42.78288605978908
 30
0.0
 40
3.5
 41
0.0
 71
     1
 72
     1
  1
定格周波数
  7
SLDTEXTSTYLE0
 73
     1
 44
1.0
1001
ACAD
1000
MTEXTBEGIN
1070
    73
1070
     1
1070
    44
1040
1.0
1070
    74
1070
     0
1000
MTEXTEND
  0
MTEXT
  5
268
330
1CF
100
AcDbEntity
  8
SLD-0
 62
     0
100
AcDbMText
 10
82.87118110805741
 20
-42.78288605978908
 30
0.0
 40
3.5
 41
0.0
 71
     1
 72
     1
  1
50/60Hz
  7
SLDTEXTSTYLE0
 73
     1
 44
1.0
1001
ACAD
1000
MTEXTBEGIN
1070
    73
1070
     1
1070
    44
1040
1.0
1070
    74
1070
     0
1000
MTEXTEND
  0
MTEXT
  5
269
330
1CF
100
AcDbEntity
  8
SLD-0
 62
     0
100
AcDbMText
 10
11.20555602014061
 20
-48.78288605978909
 30
0.0
 40
3.5
 41
0.0
 71
     1
 72
     1
  1
定格消費電力 (W)
  7
SLDTEXTSTYLE0
 73
     1
 44
1.0
1001
ACAD
1000
MTEXTBEGIN
1070
    73
1070
     1
1070
    44
1040
1.0
1070
    74
1070
     0
1000
MTEXTEND
  0
MTEXT
  5
26A
330
1CF
100
AcDbEntity
  8
SLD-0
 62
     0
100
AcDbMText
 10
84.90798637270918
 20
-48.78288605978909
 30
0.0
 40
3.5
 41
0.0
 71
     1
 72
     1
  1
90/95
  7
SLDTEXTSTYLE0
 73
     1
 44
1.0
1001
ACAD
1000
MTEXTBEGIN
1070
    73
1070
     1
1070
    44
1040
1.0
1070
    74
1070
     0
1000
MTEXTEND
  0
MTEXT
  5
26B
330
1CF
100
AcDbEntity
  8
SLD-0
 62
     0
100
AcDbMText
 10
10.18715292215344
 20
-54.78288605978909
 30
0.0
 40
3.5
 41
0.0
 71
     1
 72
     1
  1
定格運転時間 (分)
  7
SLDTEXTSTYLE0
 73
     1
 44
1.0
1001
ACAD
1000
MTEXTBEGIN
1070
    73
1070
     1
1070
    44
1040
1.0
1070
    74
1070
     0
1000
MTEXTEND
  0
MTEXT
  5
26C
330
1CF
100
AcDbEntity
  8
SLD-0
 62
     0
100
AcDbMText
 10
85.92638900503507
 20
-54.78288605978909
 30
0.0
 40
3.5
 41
0.0
 71
     1
 72
     1
  1
連続
  7
SLDTEXTSTYLE0
 73
     1
 44
1.0
1001
ACAD
1000
MTEXTBEGIN
1070
    73
1070
     1
1070
    44
1040
1.0
1070
    74
1070
     0
1000
MTEXTEND
  0
MTEXT
  5
26D
330
1CF
100
AcDbEntity
  8
SLD-0
 62
     0
100
AcDbMText
 10
15.27916748076674
 20
-60.7828860597891
 30
0.0
 40
3.5
 41
0.0
 71
     1
 72
     1
  1
電源スイッチ
  7
SLDTEXTSTYLE0
 73
     1
 44
1.0
1001
ACAD
1000
MTEXTBEGIN
1070
    73
1070
     1
1070
    44
1040
1.0
1070
    74
1070
     0
1000
MTEXTEND
  0
MTEXT
  5
26E
330
1CF
100
AcDbEntity
  8
SLD-0
 62
     0
100
AcDbMText
 10
81.85277801007023
 20
-60.7828860597891
 30
0.0
 40
3.5
 41
0.0
 71
     1
 72
     1
  1
トグル式
  7
SLDTEXTSTYLE0
 73
     1
 44
1.0
1001
ACAD
1000
MTEXTBEGIN
1070
    73
1070
     1
1070
    44
1040
1.0
1070
    74
1070
     0
1000
MTEXTEND
  0
MTEXT
  5
26F
330
1CF
100
AcDbEntity
  8
SLD-0
 62
     0
100
AcDbMText
 10
21.38958327472207
 20
-66.7828860597891
 30
0.0
 40
3.5
 41
0.0
 71
     1
 72
     1
  1
モータ
  7
SLDTEXTSTYLE0
 73
     1
 44
1.0
1001
ACAD
1000
MTEXTBEGIN
1070
    73
1070
     1
1070
    44
1040
1.0
1070
    74
1070
     0
1000
MTEXTEND
  0
MTEXT
  5
270
330
1CF
100
AcDbEntity
  8
SLD-0
 62
     0
100
AcDbMText
 10
56.39270707964889
 20
-66.7828860597891
 30
0.0
 40
3.5
 41
0.0
 71
     1
 72
     1
  1
ｺﾝﾃﾞﾝｻ始動形単相誘導電導機 60W 4P
  7
SLDTEXTSTYLE0
 73
     1
 44
1.0
1001
ACAD
1000
MTEXTBEGIN
1070
    73
1070
     1
1070
    44
1040
1.0
1070
    74
1070
     0
1000
MTEXTEND
  0
MTEXT
  5
271
330
1CF
100
AcDbEntity
  8
SLD-0
 62
     0
100
AcDbMText
 10
6.389583274722054
 20
-76.52506864111124
 30
0.0
 40
3.5
 41
0.0
 71
     1
 72
     1
  1
回転数
  7
SLDTEXTSTYLE0
 73
     1
 44
1.0
1001
ACAD
1000
MTEXTBEGIN
1070
    73
1070
     1
1070
    44
1040
1.0
1070
    74
1070
     0
1000
MTEXTEND
  0
MTEXT
  5
272
330
1CF
100
AcDbEntity
  8
SLD-0
 62
     0
100
AcDbMText
 10
35.92638900503514
 20
-73.52506864111124
 30
0.0
 40
3.5
 41
0.0
 71
     1
 72
     1
  1
刃物
  7
SLDTEXTSTYLE0
 73
     1
 44
1.0
1001
ACAD
1000
MTEXTBEGIN
1070
    73
1070
     1
1070
    44
1040
1.0
1070
    74
1070
     0
1000
MTEXTEND
  0
MTEXT
  5
273
330
1CF
100
AcDbEntity
  8
SLD-0
 62
     0
100
AcDbMText
 10
79.81597181409589
 20
-71.48826314362882
 30
0.0
 40
3.5
 41
0.0
 71
     1
 72
     1
  1
465/560rpm
  7
SLDTEXTSTYLE0
 73
     1
 44
1.0
1001
ACAD
1000
MTEXTBEGIN
1070
    73
1070
     1
1070
    44
1040
1.0
1070
    74
1070
     0
1000
MTEXTEND
  0
MTEXT
  5
274
330
1CF
100
AcDbEntity
  8
SLD-0
 62
     0
100
AcDbMText
 10
79.81597181409589
 20
-75.56187413859366
 30
0.0
 40
3.5
 41
0.0
 71
     1
 72
     1
  1
820/980rpm
  7
SLDTEXTSTYLE0
 73
     1
 44
1.0
1001
ACAD
1000
MTEXTBEGIN
1070
    73
1070
     1
1070
    44
1040
1.0
1070
    74
1070
     0
1000
MTEXTEND
  0
MTEXT
  5
275
330
1CF
100
AcDbEntity
  8
SLD-0
 62
     0
100
AcDbMText
 10
31.85277801007031
 20
-80.52506864111125
 30
0.0
 40
3.5
 41
0.0
 71
     1
 72
     1
  1
回転羽根
  7
SLDTEXTSTYLE0
 73
     1
 44
1.0
1001
ACAD
1000
MTEXTBEGIN
1070
    73
1070
     1
1070
    44
1040
1.0
1070
    74
1070
     0
1000
MTEXTEND
  0
MTEXT
  5
276
330
1CF
100
AcDbEntity
  8
SLD-0
 62
     0
100
AcDbMText
 10
81.85277801007023
 20
-80.52506864111125
 30
0.0
 40
3.5
 41
0.0
 71
     1
 72
     1
  1
70/85rpm
  7
SLDTEXTSTYLE0
 73
     1
 44
1.0
1001
ACAD
1000
MTEXTBEGIN
1070
    73
1070
     1
1070
    44
1040
1.0
1070
    74
1070
     0
1000
MTEXTEND
  0
MTEXT
  5
277
330
1CF
100
AcDbEntity
  8
SLD-0
 62
     0
100
AcDbMText
 10
19.35277801007029
 20
-86.78288605978911
 30
0.0
 40
3.5
 41
0.0
 71
     1
 72
     1
  1
安全装置
  7
SLDTEXTSTYLE0
 73
     1
 44
1.0
1001
ACAD
1000
MTEXTBEGIN
1070
    73
1070
     1
1070
    44
1040
1.0
1070
    74
1070
     0
1000
MTEXTEND
  0
MTEXT
  5
278
330
1CF
100
AcDbEntity
  8
SLD-0
 62
     0
100
AcDbMText
 10
69.63194176554671
 20
-86.78288605978911
 30
0.0
 40
3.5
 41
0.0
 71
     1
 72
     1
  1
ｻｰﾏﾙﾌﾟﾛﾃｸﾀｰ(ﾓｰﾀ内蔵)
  7
SLDTEXTSTYLE0
 73
     1
 44
1.0
1001
ACAD
1000
MTEXTBEGIN
1070
    73
1070
     1
1070
    44
1040
1.0
1070
    74
1070
     0
1000
MTEXTEND
  0
MTEXT
  5
279
330
1CF
100
AcDbEntity
  8
SLD-0
 62
     0
100
AcDbMText
 10
15.27916748076674
 20
-92.78288605978913
 30
0.0
 40
3.5
 41
0.0
 71
     1
 72
     1
  1
使用温度範囲
  7
SLDTEXTSTYLE0
 73
     1
 44
1.0
1001
ACAD
1000
MTEXTBEGIN
1070
    73
1070
     1
1070
    44
1040
1.0
1070
    74
1070
     0
1000
MTEXTEND
  0
MTEXT
  5
27A
330
1CF
100
AcDbEntity
  8
SLD-0
 62
     0
100
AcDbMText
 10
81.85277801007023
 20
-92.78288605978913
 30
0.0
 40
3.5
 41
0.0
 71
     1
 72
     1
  1
10～40℃
  7
SLDTEXTSTYLE0
 73
     1
 44
1.0
1001
ACAD
1000
MTEXTBEGIN
1070
    73
1070
     1
1070
    44
1040
1.0
1070
    74
1070
     0
1000
MTEXTEND
  0
MTEXT
  5
27B
330
1CF
100
AcDbEntity
  8
SLD-0
 62
     0
100
AcDbMText
 10
16.29757057875391
 20
-98.78288605978914
 30
0.0
 40
3.5
 41
0.0
 71
     1
 72
     1
  1
ｷｬﾍﾞﾂ収容量
  7
SLDTEXTSTYLE0
 73
     1
 44
1.0
1001
ACAD
1000
MTEXTBEGIN
1070
    73
1070
     1
1070
    44
1040
1.0
1070
    74
1070
     0
1000
MTEXTEND
  0
MTEXT
  5
27C
330
1CF
100
AcDbEntity
  8
SLD-0
 62
     0
100
AcDbMText
 10
84.90798637270918
 20
-98.78288605978914
 30
0.0
 40
3.5
 41
0.0
 71
     1
 72
     1
  1
約2玉
  7
SLDTEXTSTYLE0
 73
     1
 44
1.0
1001
ACAD
1000
MTEXTBEGIN
1070
    73
1070
     1
1070
    44
1040
1.0
1070
    74
1070
     0
1000
MTEXTEND
  0
MTEXT
  5
27D
330
1CF
100
AcDbEntity
  8
SLD-0
 62
     0
100
AcDbMText
 10
15.27916748076674
 20
-104.7828860597891
 30
0.0
 40
3.5
 41
0.0
 71
     1
 72
     1
  1
厚み調節範囲
  7
SLDTEXTSTYLE0
 73
     1
 44
1.0
1001
ACAD
1000
MTEXTBEGIN
1070
    73
1070
     1
1070
    44
1040
1.0
1070
    74
1070
     0
1000
MTEXTEND
  0
MTEXT
  5
27E
330
1CF
100
AcDbEntity
  8
SLD-0
 62
     0
100
AcDbMText
 10
79.81597181409589
 20
-104.7828860597891
 30
0.0
 40
3.5
 41
0.0
 71
     1
 72
     1
  1
0.8～5.0mm
  7
SLDTEXTSTYLE0
 73
     1
 44
1.0
1001
ACAD
1000
MTEXTBEGIN
1070
    73
1070
     1
1070
    44
1040
1.0
1070
    74
1070
     0
1000
MTEXTEND
  0
MTEXT
  5
27F
330
1CF
100
AcDbEntity
  8
SLD-0
 62
     0
100
AcDbMText
 10
19.35277801007029
 20
-110.5250686411112
 30
0.0
 40
3.5
 41
0.0
 71
     1
 72
     1
  1
処理能力
  7
SLDTEXTSTYLE0
 73
     1
 44
1.0
1001
ACAD
1000
MTEXTBEGIN
1070
    73
1070
     1
1070
    44
1040
1.0
1070
    74
1070
     0
1000
MTEXTEND
  0
MTEXT
  5
280
330
1CF
100
AcDbEntity
  8
SLD-0
 62
     0
100
AcDbMText
 10
67.59513556957236
 20
-110.5250686411112
 30
0.0
 40
3.5
 41
0.0
 71
     1
 72
     1
  1
0.9/1.2kg/min(0.8mm厚)
  7
SLDTEXTSTYLE0
 73
     1
 44
1.0
1001
ACAD
1000
MTEXTBEGIN
1070
    73
1070
     1
1070
    44
1040
1.0
1070
    74
1070
     0
1000
MTEXTEND
  0
MTEXT
  5
281
330
1CF
100
AcDbEntity
  8
SLD-0
 62
     0
100
AcDbMText
 10
21.38958327472207
 20
-125.7828860597891
 30
0.0
 40
3.5
 41
0.0
 71
     1
 72
     1
  1
付属品
  7
SLDTEXTSTYLE0
 73
     1
 44
1.0
1001
ACAD
1000
MTEXTBEGIN
1070
    73
1070
     1
1070
    44
1040
1.0
1070
    74
1070
     0
1000
MTEXTEND
  0
MTEXT
  5
282
330
1CF
100
AcDbEntity
  8
SLD-0
 62
     0
100
AcDbMText
 10
72.68715292215339
 20
-117.6356643026901
 30
0.0
 40
3.5
 41
0.0
 71
     1
 72
     1
  1
①取扱説明書；1部
  7
SLDTEXTSTYLE0
 73
     1
 44
1.0
1001
ACAD
1000
MTEXTBEGIN
1070
    73
1070
     1
1070
    44
1040
1.0
1070
    74
1070
     0
1000
MTEXTEND
  0
MTEXT
  5
283
330
1CF
100
AcDbEntity
  8
SLD-0
 62
     0
100
AcDbMText
 10
72.68715292215339
 20
-121.7092752976549
 30
0.0
 40
3.5
 41
0.0
 71
     1
 72
     1
  1
②安全カバー；1個
  7
SLDTEXTSTYLE0
 73
     1
 44
1.0
1001
ACAD
1000
MTEXTBEGIN
1070
    73
1070
     1
1070
    44
1040
1.0
1070
    74
1070
     0
1000
MTEXTEND
  0
MTEXT
  5
284
330
1CF
100
AcDbEntity
  8
SLD-0
 62
     0
100
AcDbMText
 10
68.61354053020469
 20
-125.7828862926198
 30
0.0
 40
3.5
 41
0.0
 71
     1
 72
     1
  1
③飛散防止カバー；1個
  7
SLDTEXTSTYLE0
 73
     1
 44
1.0
1001
ACAD
1000
MTEXTBEGIN
1070
    73
1070
     1
1070
    44
1040
1.0
1070
    74
1070
     0
1000
MTEXTEND
  0
MTEXT
  5
285
330
1CF
100
AcDbEntity
  8
SLD-0
 62
     0
100
AcDbMText
 10
76.76076438277951
 20
-129.8564972875846
 30
0.0
 40
3.5
 41
0.0
 71
     1
 72
     1
  1
④おもり；2個
  7
SLDTEXTSTYLE0
 73
     1
 44
1.0
1001
ACAD
1000
MTEXTBEGIN
1070
    73
1070
     1
1070
    44
1040
1.0
1070
    74
1070
     0
1000
MTEXTEND
  0
MTEXT
  5
286
330
1CF
100
AcDbEntity
  8
SLD-0
 62
     0
100
AcDbMText
 10
69.63194362819186
 20
-133.9301082825494
 30
0.0
 40
3.5
 41
0.0
 71
     1
 72
     1
  1
⑤研磨器セット；1set
  7
SLDTEXTSTYLE0
 73
     1
 44
1.0
1001
ACAD
1000
MTEXTBEGIN
1070
    73
1070
     1
1070
    44
1040
1.0
1070
    74
1070
     0
1000
MTEXTEND
  0
MTEXT
  5
287
330
1CF
100
AcDbEntity
  8
SLD-0
 62
     0
100
AcDbMText
 10
17.31597274541852
 20
-146.7828860597891
 30
0.0
 40
3.5
 41
0.0
 71
     1
 72
     1
  1
オプション
  7
SLDTEXTSTYLE0
 73
     1
 44
1.0
1001
ACAD
1000
MTEXTBEGIN
1070
    73
1070
     1
1070
    44
1040
1.0
1070
    74
1070
     0
1000
MTEXTEND
  0
MTEXT
  5
288
330
1CF
100
AcDbEntity
  8
SLD-0
 62
     0
100
AcDbMText
 10
77.77916748076669
 20
-144.7460805623067
 30
0.0
 40
3.5
 41
0.0
 71
     1
 72
     1
  1
①排出補助板
  7
SLDTEXTSTYLE0
 73
     1
 44
1.0
1001
ACAD
1000
MTEXTBEGIN
1070
    73
1070
     1
1070
    44
1040
1.0
1070
    74
1070
     0
1000
MTEXTEND
  0
MTEXT
  5
289
330
1CF
100
AcDbEntity
  8
SLD-0
 62
     0
100
AcDbMText
 10
75.74236221611491
 20
-148.8196915572715
 30
0.0
 40
3.5
 41
0.0
 71
     1
 72
     1
  1
②研磨器セット
  7
SLDTEXTSTYLE0
 73
     1
 44
1.0
1001
ACAD
1000
MTEXTBEGIN
1070
    73
1070
     1
1070
    44
1040
1.0
1070
    74
1070
     0
1000
MTEXTEND
  0
ENDBLK
  5
1D1
330
1CF
100
AcDbEntity
  8
0
100
AcDbBlockEnd
  0
BLOCK
  5
39F0
330
39EF
100
AcDbEntity
  8
0
100
AcDbBlockBegin
  2
_Open30
 70
     0
 10
0.0
 20
0.0
 30
0.0
  3
_Open30
  1

  0
LINE
  5
39F2
330
39EF
100
AcDbEntity
  8
0
  6
ByBlock
 62
     0
370
    -2
100
AcDbLine
 10
-1.0
 20
0.267949
 30
0.0
 11
0.0
 21
0.0
 31
0.0
  0
LINE
  5
39F3
330
39EF
100
AcDbEntity
  8
0
  6
ByBlock
 62
     0
370
    -2
100
AcDbLine
 10
0.0
 20
0.0
 30
0.0
 11
-1.0
 21
-0.267949
 31
0.0
  0
LINE
  5
39F4
330
39EF
100
AcDbEntity
  8
0
  6
ByBlock
 62
     0
370
    -2
100
AcDbLine
 10
0.0
 20
0.0
 30
0.0
 11
-1.0
 21
0.0
 31
0.0
  0
ENDBLK
  5
39F1
330
39EF
100
AcDbEntity
  8
0
100
AcDbBlockEnd
  0
BLOCK
  5
39F6
330
39F5
100
AcDbEntity
  8
0
100
AcDbBlockBegin
  2
_D
 70
     0
 10
0.0
 20
0.0
 30
0.0
  3
_D
  1

  0
LINE
  5
7015
330
39F5
100
AcDbEntity
  8
SUNPOU
 62
     0
370
    -2
100
AcDbLine
 10
60.50031160659656
 20
69.49167875597087
 30
0.0
 11
37.53208530345553
 21
69.49167875597087
 31
0.0
  0
LINE
  5
7016
330
39F5
100
AcDbEntity
  8
SUNPOU
 62
     0
370
    -2
100
AcDbLine
 10
52.59194114233981
 20
130.9916787559709
 30
0.0
 11
37.53208530345531
 21
130.9916787559709
 31
0.0
  0
LINE
  5
7017
330
39F5
100
AcDbEntity
  8
SUNPOU
 62
     0
370
    -2
100
AcDbLine
 10
37.53208530345551
 20
73.49167875597078
 30
0.0
 11
37.53208530345551
 21
126.9916787559708
 31
0.0
  0
INSERT
  5
7018
330
39F5
100
AcDbEntity
  8
SUNPOU
 62
     0
370
    -2
100
AcDbBlockReference
  2
_Open30
 10
37.53208530345553
 20
69.49167875597078
 30
0.0
 41
4.0
 42
4.0
 43
4.0
 50
270.0000000000002
  0
INSERT
  5
7019
330
39F5
100
AcDbEntity
  8
SUNPOU
 62
     0
370
    -2
100
AcDbBlockReference
  2
_Open30
 10
37.53208530345531
 20
130.9916787559708
 30
0.0
 41
4.0
 42
4.0
 43
4.0
 50
90.00000000000019
  0
MTEXT
  5
701A
330
39F5
100
AcDbEntity
  8
SUNPOU
 62
     0
100
AcDbMText
 10
33.15708530345542
 20
100.2416787559708
 30
0.0
 40
3.5
 41
0.0
 71
     2
 72
     5
  1
\A1;184.5
  7
SLDTEXTSTYLE0
 11
-0.0000000000000035
 21
1.0
 31
0.0
 73
     1
 44
1.0
1001
ACAD
1000
MTEXTBEGIN
1070
    73
1070
     1
1070
    44
1040
1.0
1070
    74
1070
     0
1000
MTEXTEND
  0
POINT
  5
701B
330
39F5
100
AcDbEntity
  8
Defpoints
 62
     0
100
AcDbPoint
 10
60.56281160659656
 20
69.49167875597087
 30
0.0
  0
POINT
  5
701C
330
39F5
100
AcDbEntity
  8
Defpoints
 62
     0
100
AcDbPoint
 10
52.6544411423398
 20
130.9916787559709
 30
0.0
  0
POINT
  5
701D
330
39F5
100
AcDbEntity
  8
Defpoints
 62
     0
100
AcDbPoint
 10
37.53208530345531
 20
130.9916787559708
 30
0.0
  0
ENDBLK
  5
39F7
330
39F5
100
AcDbEntity
  8
0
100
AcDbBlockEnd
  0
BLOCK
  5
3A00
330
39FF
100
AcDbEntity
  8
0
100
AcDbBlockBegin
  2
_D_1
 70
     0
 10
0.0
 20
0.0
 30
0.0
  3
_D_1
  1

  0
LINE
  5
700C
330
39FF
100
AcDbEntity
  8
SUNPOU
 62
     0
370
    -2
100
AcDbLine
 10
148.6746867042223
 20
69.49167875597087
 30
0.0
 11
171.4635623720923
 21
69.49167875597087
 31
0.0
  0
LINE
  5
700D
330
39FF
100
AcDbEntity
  8
SUNPOU
 62
     0
370
    -2
100
AcDbLine
 10
150.2867531070948
 20
113.3265145078398
 30
0.0
 11
171.4635623720921
 21
113.3265145078398
 31
0.0
  0
LINE
  5
700E
330
39FF
100
AcDbEntity
  8
SUNPOU
 62
     0
370
    -2
100
AcDbLine
 10
171.4635623720923
 20
73.49167875597093
 30
0.0
 11
171.4635623720923
 21
109.3265145078399
 31
0.0
  0
INSERT
  5
700F
330
39FF
100
AcDbEntity
  8
SUNPOU
 62
     0
370
    -2
100
AcDbBlockReference
  2
_Open30
 10
171.4635623720923
 20
69.49167875597094
 30
0.0
 41
4.0
 42
4.0
 43
4.0
 50
270.0000000000002
  0
INSERT
  5
7010
330
39FF
100
AcDbEntity
  8
SUNPOU
 62
     0
370
    -2
100
AcDbBlockReference
  2
_Open30
 10
171.4635623720921
 20
113.3265145078399
 30
0.0
 41
4.0
 42
4.0
 43
4.0
 50
90.00000000000021
  0
MTEXT
  5
7011
330
39FF
100
AcDbEntity
  8
SUNPOU
 62
     0
100
AcDbMText
 10
167.0885623720922
 20
91.40909663190534
 30
0.0
 40
3.5
 41
0.0
 71
     2
 72
     5
  1
\A1;131.5
  7
SLDTEXTSTYLE0
 11
-0.0000000000000039
 21
1.0
 31
0.0
 73
     1
 44
1.0
1001
ACAD
1000
MTEXTBEGIN
1070
    73
1070
     1
1070
    44
1040
1.0
1070
    74
1070
     0
1000
MTEXTEND
  0
POINT
  5
7012
330
39FF
100
AcDbEntity
  8
Defpoints
 62
     0
100
AcDbPoint
 10
148.6121867042223
 20
69.49167875597087
 30
0.0
  0
POINT
  5
7013
330
39FF
100
AcDbEntity
  8
Defpoints
 62
     0
100
AcDbPoint
 10
150.2242531070948
 20
113.3265145078398
 30
0.0
  0
POINT
  5
7014
330
39FF
100
AcDbEntity
  8
Defpoints
 62
     0
100
AcDbPoint
 10
171.4635623720921
 20
113.3265145078399
 30
0.0
  0
ENDBLK
  5
3A01
330
39FF
100
AcDbEntity
  8
0
100
AcDbBlockEnd
  0
BLOCK
  5
3A0A
330
3A09
100
AcDbEntity
  8
0
100
AcDbBlockBegin
  2
_D_2
 70
     0
 10
0.0
 20
0.0
 30
0.0
  3
_D_2
  1

  0
LINE
  5
7003
330
3A09
100
AcDbEntity
  8
SUNPOU
 62
     0
370
    -2
100
AcDbLine
 10
148.6746867042223
 20
69.49167875597087
 30
0.0
 11
179.3052758108867
 21
69.49167875597087
 31
0.0
  0
LINE
  5
7004
330
3A09
100
AcDbEntity
  8
SUNPOU
 62
     0
370
    -2
100
AcDbLine
 10
158.3166658220761
 20
247.6583454226375
 30
0.0
 11
179.3052758108861
 21
247.6583454226375
 31
0.0
  0
LINE
  5
7005
330
3A09
100
AcDbEntity
  8
SUNPOU
 62
     0
370
    -2
100
AcDbLine
 10
179.3052758108867
 20
73.491678755971
 30
0.0
 11
179.3052758108867
 21
243.6583454226376
 31
0.0
  0
INSERT
  5
7006
330
3A09
100
AcDbEntity
  8
SUNPOU
 62
     0
370
    -2
100
AcDbBlockReference
  2
_Open30
 10
179.3052758108867
 20
69.49167875597099
 30
0.0
 41
4.0
 42
4.0
 43
4.0
 50
270.0000000000002
  0
INSERT
  5
7007
330
3A09
100
AcDbEntity
  8
SUNPOU
 62
     0
370
    -2
100
AcDbBlockReference
  2
_Open30
 10
179.3052758108861
 20
247.6583454226375
 30
0.0
 41
4.0
 42
4.0
 43
4.0
 50
90.00000000000019
  0
MTEXT
  5
7008
330
3A09
100
AcDbEntity
  8
SUNPOU
 62
     0
100
AcDbMText
 10
174.9302758108864
 20
158.5750120893041
 30
0.0
 40
3.5
 41
0.0
 71
     2
 72
     5
  1
\A1;534.5
  7
SLDTEXTSTYLE0
 11
-0.0000000000000035
 21
1.0
 31
0.0
 73
     1
 44
1.0
1001
ACAD
1000
MTEXTBEGIN
1070
    73
1070
     1
1070
    44
1040
1.0
1070
    74
1070
     0
1000
MTEXTEND
  0
POINT
  5
7009
330
3A09
100
AcDbEntity
  8
Defpoints
 62
     0
100
AcDbPoint
 10
148.6121867042223
 20
69.49167875597087
 30
0.0
  0
POINT
  5
700A
330
3A09
100
AcDbEntity
  8
Defpoints
 62
     0
100
AcDbPoint
 10
158.2541658220762
 20
247.6583454226375
 30
0.0
  0
POINT
  5
700B
330
3A09
100
AcDbEntity
  8
Defpoints
 62
     0
100
AcDbPoint
 10
179.3052758108861
 20
247.6583454226375
 30
0.0
  0
ENDBLK
  5
3A0B
330
3A09
100
AcDbEntity
  8
0
100
AcDbBlockEnd
  0
BLOCK
  5
3A15
330
3A14
100
AcDbEntity
  8
0
100
AcDbBlockBegin
  2
_D_3
 70
     0
 10
0.0
 20
0.0
 30
0.0
  3
_D_3
  1

  0
LINE
  5
6FFA
330
3A14
100
AcDbEntity
  8
SUNPOU
 62
     0
370
    -2
100
AcDbLine
 10
56.25416582207609
 20
142.5958454226375
 30
0.0
 11
56.25416582207609
 21
61.38080489957662
 31
0.0
  0
LINE
  5
6FFB
330
3A14
100
AcDbEntity
  8
SUNPOU
 62
     0
370
    -2
100
AcDbLine
 10
104.5874991554094
 20
66.9051570133294
 30
0.0
 11
104.5874991554094
 21
61.38080489957662
 31
0.0
  0
LINE
  5
6FFC
330
3A14
100
AcDbEntity
  8
SUNPOU
 62
     0
370
    -2
100
AcDbLine
 10
60.2541658220761
 20
61.38080489957662
 30
0.0
 11
100.5874991554094
 21
61.38080489957662
 31
0.0
  0
INSERT
  5
6FFD
330
3A14
100
AcDbEntity
  8
SUNPOU
 62
     0
370
    -2
100
AcDbBlockReference
  2
_Open30
 10
56.25416582207609
 20
61.38080489957662
 30
0.0
 41
4.0
 42
4.0
 43
4.0
 50
180.0
  0
INSERT
  5
6FFE
330
3A14
100
AcDbEntity
  8
SUNPOU
 62
     0
370
    -2
100
AcDbBlockReference
  2
_Open30
 10
104.5874991554094
 20
61.38080489957662
 30
0.0
 41
4.0
 42
4.0
 43
4.0
  0
MTEXT
  5
6FFF
330
3A14
100
AcDbEntity
  8
SUNPOU
 62
     0
100
AcDbMText
 10
80.42083248874275
 20
65.75580489957662
 30
0.0
 40
3.5
 41
0.0
 71
     2
 72
     5
  1
\A1;145
  7
SLDTEXTSTYLE0
 73
     1
 44
1.0
1001
ACAD
1000
MTEXTBEGIN
1070
    73
1070
     1
1070
    44
1040
1.0
1070
    74
1070
     0
1000
MTEXTEND
  0
POINT
  5
7000
330
3A14
100
AcDbEntity
  8
Defpoints
 62
     0
100
AcDbPoint
 10
56.25416582207609
 20
142.6583454226375
 30
0.0
  0
POINT
  5
7001
330
3A14
100
AcDbEntity
  8
Defpoints
 62
     0
100
AcDbPoint
 10
104.5874991554094
 20
66.9676570133294
 30
0.0
  0
POINT
  5
7002
330
3A14
100
AcDbEntity
  8
Defpoints
 62
     0
100
AcDbPoint
 10
104.5874991554094
 20
61.38080489957662
 30
0.0
  0
ENDBLK
  5
3A16
330
3A14
100
AcDbEntity
  8
0
100
AcDbBlockEnd
  0
BLOCK
  5
3A1F
330
3A1E
100
AcDbEntity
  8
0
100
AcDbBlockBegin
  2
_D_4
 70
     0
 10
0.0
 20
0.0
 30
0.0
  3
_D_4
  1

  0
LINE
  5
6FF1
330
3A1E
100
AcDbEntity
  8
SUNPOU
 62
     0
370
    -2
100
AcDbLine
 10
64.58749915540943
 20
67.42917875597088
 30
0.0
 11
64.58749915540943
 21
55.82501208930421
 31
0.0
  0
LINE
  5
6FF2
330
3A1E
100
AcDbEntity
  8
SUNPOU
 62
     0
370
    -2
100
AcDbLine
 10
144.5874991554094
 20
67.42917875597088
 30
0.0
 11
144.5874991554094
 21
55.82501208930421
 31
0.0
  0
LINE
  5
6FF3
330
3A1E
100
AcDbEntity
  8
SUNPOU
 62
     0
370
    -2
100
AcDbLine
 10
68.58749915540943
 20
55.82501208930421
 30
0.0
 11
140.5874991554094
 21
55.82501208930421
 31
0.0
  0
INSERT
  5
6FF4
330
3A1E
100
AcDbEntity
  8
SUNPOU
 62
     0
370
    -2
100
AcDbBlockReference
  2
_Open30
 10
64.58749915540943
 20
55.82501208930421
 30
0.0
 41
4.0
 42
4.0
 43
4.0
 50
180.0
  0
INSERT
  5
6FF5
330
3A1E
100
AcDbEntity
  8
SUNPOU
 62
     0
370
    -2
100
AcDbBlockReference
  2
_Open30
 10
144.5874991554094
 20
55.82501208930421
 30
0.0
 41
4.0
 42
4.0
 43
4.0
  0
MTEXT
  5
6FF6
330
3A1E
100
AcDbEntity
  8
SUNPOU
 62
     0
100
AcDbMText
 10
104.5874991554094
 20
60.20001208930421
 30
0.0
 40
3.5
 41
0.0
 71
     2
 72
     5
  1
\A1;240
  7
SLDTEXTSTYLE0
 73
     1
 44
1.0
1001
ACAD
1000
MTEXTBEGIN
1070
    73
1070
     1
1070
    44
1040
1.0
1070
    74
1070
     0
1000
MTEXTEND
  0
POINT
  5
6FF7
330
3A1E
100
AcDbEntity
  8
Defpoints
 62
     0
100
AcDbPoint
 10
64.58749915540943
 20
67.49167875597088
 30
0.0
  0
POINT
  5
6FF8
330
3A1E
100
AcDbEntity
  8
Defpoints
 62
     0
100
AcDbPoint
 10
144.5874991554094
 20
67.49167875597088
 30
0.0
  0
POINT
  5
6FF9
330
3A1E
100
AcDbEntity
  8
Defpoints
 62
     0
100
AcDbPoint
 10
144.5874991554094
 20
55.82501208930421
 30
0.0
  0
ENDBLK
  5
3A20
330
3A1E
100
AcDbEntity
  8
0
100
AcDbBlockEnd
  0
BLOCK
  5
3A29
330
3A28
100
AcDbEntity
  8
0
100
AcDbBlockBegin
  2
_D_5
 70
     0
 10
0.0
 20
0.0
 30
0.0
  3
_D_5
  1

  0
LINE
  5
6FE8
330
3A28
100
AcDbEntity
  8
SUNPOU
 62
     0
370
    -2
100
AcDbLine
 10
56.25416582207609
 20
72.76251208930419
 30
0.0
 11
56.25416582207609
 21
49.82501208930417
 31
0.0
  0
LINE
  5
6FE9
330
3A28
100
AcDbEntity
  8
SUNPOU
 62
     0
370
    -2
100
AcDbLine
 10
152.9208324887427
 20
72.76251208930419
 30
0.0
 11
152.9208324887427
 21
49.82501208930418
 31
0.0
  0
LINE
  5
6FEA
330
3A28
100
AcDbEntity
  8
SUNPOU
 62
     0
370
    -2
100
AcDbLine
 10
60.2541658220761
 20
49.82501208930417
 30
0.0
 11
148.9208324887427
 21
49.82501208930417
 31
0.0
  0
INSERT
  5
6FEB
330
3A28
100
AcDbEntity
  8
SUNPOU
 62
     0
370
    -2
100
AcDbBlockReference
  2
_Open30
 10
56.25416582207609
 20
49.82501208930417
 30
0.0
 41
4.0
 42
4.0
 43
4.0
 50
180.0
  0
INSERT
  5
6FEC
330
3A28
100
AcDbEntity
  8
SUNPOU
 62
     0
370
    -2
100
AcDbBlockReference
  2
_Open30
 10
152.9208324887427
 20
49.82501208930418
 30
0.0
 41
4.0
 42
4.0
 43
4.0
 50
0.0000000000000084
  0
MTEXT
  5
6FED
330
3A28
100
AcDbEntity
  8
SUNPOU
 62
     0
100
AcDbMText
 10
104.5874991554094
 20
54.20001208930417
 30
0.0
 40
3.5
 41
0.0
 71
     2
 72
     5
  1
\A1;290
  7
SLDTEXTSTYLE0
 73
     1
 44
1.0
1001
ACAD
1000
MTEXTBEGIN
1070
    73
1070
     1
1070
    44
1040
1.0
1070
    74
1070
     0
1000
MTEXTEND
  0
POINT
  5
6FEE
330
3A28
100
AcDbEntity
  8
Defpoints
 62
     0
100
AcDbPoint
 10
56.25416582207609
 20
72.82501208930419
 30
0.0
  0
POINT
  5
6FEF
330
3A28
100
AcDbEntity
  8
Defpoints
 62
     0
100
AcDbPoint
 10
152.9208324887427
 20
72.82501208930419
 30
0.0
  0
POINT
  5
6FF0
330
3A28
100
AcDbEntity
  8
Defpoints
 62
     0
100
AcDbPoint
 10
152.9208324887427
 20
49.82501208930418
 30
0.0
  0
ENDBLK
  5
3A2A
330
3A28
100
AcDbEntity
  8
0
100
AcDbBlockEnd
  0
BLOCK
  5
3A33
330
3A32
100
AcDbEntity
  8
0
100
AcDbBlockBegin
  2
_D_6
 70
     0
 10
0.0
 20
0.0
 30
0.0
  3
_D_6
  1

  0
LINE
  5
6FDF
330
3A32
100
AcDbEntity
  8
SUNPOU
 62
     0
370
    -2
100
AcDbLine
 10
60.50031160659656
 20
69.49167875597087
 30
0.0
 11
30.11853535821665
 21
69.49167875597087
 31
0.0
  0
LINE
  5
6FE0
330
3A32
100
AcDbEntity
  8
SUNPOU
 62
     0
370
    -2
100
AcDbLine
 10
52.35833248874276
 20
144.3250120893042
 30
0.0
 11
30.11853535821638
 21
144.3250120893042
 31
0.0
  0
LINE
  5
6FE1
330
3A32
100
AcDbEntity
  8
SUNPOU
 62
     0
370
    -2
100
AcDbLine
 10
30.11853535821663
 20
73.49167875597075
 30
0.0
 11
30.11853535821663
 21
140.3250120893041
 31
0.0
  0
INSERT
  5
6FE2
330
3A32
100
AcDbEntity
  8
SUNPOU
 62
     0
370
    -2
100
AcDbBlockReference
  2
_Open30
 10
30.11853535821665
 20
69.49167875597075
 30
0.0
 41
4.0
 42
4.0
 43
4.0
 50
270.0000000000002
  0
INSERT
  5
6FE3
330
3A32
100
AcDbEntity
  8
SUNPOU
 62
     0
370
    -2
100
AcDbBlockReference
  2
_Open30
 10
30.11853535821638
 20
144.3250120893041
 30
0.0
 41
4.0
 42
4.0
 43
4.0
 50
90.00000000000019
  0
MTEXT
  5
6FE4
330
3A32
100
AcDbEntity
  8
SUNPOU
 62
     0
100
AcDbMText
 10
25.74353535821651
 20
106.9083454226375
 30
0.0
 40
3.5
 41
0.0
 71
     2
 72
     5
  1
\A1;224.5
  7
SLDTEXTSTYLE0
 11
-0.0000000000000035
 21
1.0
 31
0.0
 73
     1
 44
1.0
1001
ACAD
1000
MTEXTBEGIN
1070
    73
1070
     1
1070
    44
1040
1.0
1070
    74
1070
     0
1000
MTEXTEND
  0
POINT
  5
6FE5
330
3A32
100
AcDbEntity
  8
Defpoints
 62
     0
100
AcDbPoint
 10
60.56281160659656
 20
69.49167875597087
 30
0.0
  0
POINT
  5
6FE6
330
3A32
100
AcDbEntity
  8
Defpoints
 62
     0
100
AcDbPoint
 10
52.42083248874276
 20
144.3250120893042
 30
0.0
  0
POINT
  5
6FE7
330
3A32
100
AcDbEntity
  8
Defpoints
 62
     0
100
AcDbPoint
 10
30.11853535821638
 20
144.3250120893041
 30
0.0
  0
ENDBLK
  5
3A34
330
3A32
100
AcDbEntity
  8
0
100
AcDbBlockEnd
  0
BLOCK
  5
3A3C
330
3A3B
100
AcDbEntity
  8
0
100
AcDbBlockBegin
  2
SW_CENTERMARKSYMBOL_0
 70
     0
 10
0.0
 20
0.0
 30
0.0
  3
SW_CENTERMARKSYMBOL_0
  1

  0
LINE
  5
3A3E
330
3A3B
100
AcDbEntity
  8
SLD-0
 62
     0
100
AcDbLine
 10
0.0
 20
0.0
 30
0.0
 11
0.0
 21
0.8333333333333387
 31
0.0
  0
LINE
  5
3A3F
330
3A3B
100
AcDbEntity
  8
SLD-0
 62
     0
100
AcDbLine
 10
0.0
 20
0.0
 30
0.0
 11
-0.8333333333333248
 21
0.0
 31
0.0
  0
LINE
  5
3A40
330
3A3B
100
AcDbEntity
  8
SLD-0
 62
     0
100
AcDbLine
 10
0.0
 20
0.0
 30
0.0
 11
0.0
 21
-0.8333333333333248
 31
0.0
  0
LINE
  5
3A41
330
3A3B
100
AcDbEntity
  8
SLD-0
 62
     0
100
AcDbLine
 10
0.0
 20
0.0
 30
0.0
 11
0.8333333333333525
 21
0.0
 31
0.0
  0
LINE
  5
3A42
330
3A3B
100
AcDbEntity
  8
SLD-0
 62
     0
100
AcDbLine
 10
0.0
 20
1.666666666666677
 30
0.0
 11
0.0
 21
1.781718359980394
 31
0.0
  0
LINE
  5
3A43
330
3A3B
100
AcDbEntity
  8
SLD-0
 62
     0
100
AcDbLine
 10
-1.666666666666649
 20
0.0
 30
0.0
 11
-1.781718359980366
 21
0.0
 31
0.0
  0
LINE
  5
3A44
330
3A3B
100
AcDbEntity
  8
SLD-0
 62
     0
100
AcDbLine
 10
0.0
 20
-1.666666666666663
 30
0.0
 11
0.0
 21
-1.781718359980394
 31
0.0
  0
LINE
  5
3A45
330
3A3B
100
AcDbEntity
  8
SLD-0
 62
     0
100
AcDbLine
 10
1.666666666666677
 20
0.0
 30
0.0
 11
1.781718359980422
 21
0.0
 31
0.0
  0
ENDBLK
  5
3A3D
330
3A3B
100
AcDbEntity
  8
0
100
AcDbBlockEnd
  0
BLOCK
  5
3A4D
330
3A4C
100
AcDbEntity
  8
0
100
AcDbBlockBegin
  2
SW_BROKEN_VIEW_0
 70
     0
 10
0.0
 20
0.0
 30
0.0
  3
SW_BROKEN_VIEW_0
  1

  0
ENDBLK
  5
3A4E
330
3A4C
100
AcDbEntity
  8
0
100
AcDbBlockEnd
  0
BLOCK
  5
41A9
330
41A8
100
AcDbEntity
  8
0
100
AcDbBlockBegin
  2
_D_7
 70
     0
 10
0.0
 20
0.0
 30
0.0
  3
_D_7
  1

  0
LINE
  5
6FB2
330
41A8
100
AcDbEntity
  8
SUNPOU
 62
     0
370
    -2
100
AcDbLine
 10
289.9524954598072
 20
67.65834542263776
 30
0.0
 11
217.9217353909007
 21
67.65834542263776
 31
0.0
  0
LINE
  5
6FB3
330
41A8
100
AcDbEntity
  8
SUNPOU
 62
     0
370
    -2
100
AcDbLine
 10
283.4054822474005
 20
125.8250120893044
 30
0.0
 11
217.9217353909005
 21
125.8250120893044
 31
0.0
  0
LINE
  5
6FB4
330
41A8
100
AcDbEntity
  8
SUNPOU
 62
     0
370
    -2
100
AcDbLine
 10
217.9217353909007
 20
71.65834542263751
 30
0.0
 11
217.9217353909007
 21
121.8250120893042
 31
0.0
  0
INSERT
  5
6FB5
330
41A8
100
AcDbEntity
  8
SUNPOU
 62
     0
370
    -2
100
AcDbBlockReference
  2
_Open30
 10
217.9217353909007
 20
67.65834542263751
 30
0.0
 41
4.0
 42
4.0
 43
4.0
 50
270.0000000000002
  0
INSERT
  5
6FB6
330
41A8
100
AcDbEntity
  8
SUNPOU
 62
     0
370
    -2
100
AcDbBlockReference
  2
_Open30
 10
217.9217353909005
 20
125.8250120893042
 30
0.0
 41
4.0
 42
4.0
 43
4.0
 50
90.00000000000021
  0
MTEXT
  5
6FB7
330
41A8
100
AcDbEntity
  8
SUNPOU
 62
     0
100
AcDbMText
 10
213.5467353909006
 20
96.7416787559711
 30
0.0
 40
3.5
 41
0.0
 71
     2
 72
     5
  1
\A1;174.5
  7
SLDTEXTSTYLE0
 11
-0.0000000000000039
 21
1.0
 31
0.0
 73
     1
 44
1.0
1001
ACAD
1000
MTEXTBEGIN
1070
    73
1070
     1
1070
    44
1040
1.0
1070
    74
1070
     0
1000
MTEXTEND
  0
POINT
  5
6FB8
330
41A8
100
AcDbEntity
  8
Defpoints
 62
     0
100
AcDbPoint
 10
290.0149954598072
 20
67.65834542263776
 30
0.0
  0
POINT
  5
6FB9
330
41A8
100
AcDbEntity
  8
Defpoints
 62
     0
100
AcDbPoint
 10
283.4679822474005
 20
125.8250120893044
 30
0.0
  0
POINT
  5
6FBA
330
41A8
100
AcDbEntity
  8
Defpoints
 62
     0
100
AcDbPoint
 10
217.9217353909005
 20
125.8250120893042
 30
0.0
  0
ENDBLK
  5
41AA
330
41A8
100
AcDbEntity
  8
0
100
AcDbBlockEnd
  0
BLOCK
  5
41B3
330
41B2
100
AcDbEntity
  8
0
100
AcDbBlockBegin
  2
_D_8
 70
     0
 10
0.0
 20
0.0
 30
0.0
  3
_D_8
  1

  0
LINE
  5
6FA9
330
41B2
100
AcDbEntity
  8
SUNPOU
 62
     0
370
    -2
100
AcDbLine
 10
289.9524954598072
 20
67.65834542263776
 30
0.0
 11
211.0109965282784
 21
67.65834542263776
 31
0.0
  0
LINE
  5
6FAA
330
41B2
100
AcDbEntity
  8
SUNPOU
 62
     0
370
    -2
100
AcDbLine
 10
246.5438496752867
 20
137.6250120893044
 30
0.0
 11
211.0109965282782
 21
137.6250120893044
 31
0.0
  0
LINE
  5
6FAB
330
41B2
100
AcDbEntity
  8
SUNPOU
 62
     0
370
    -2
100
AcDbLine
 10
211.0109965282784
 20
71.65834542263751
 30
0.0
 11
211.0109965282784
 21
133.6250120893043
 31
0.0
  0
INSERT
  5
6FAC
330
41B2
100
AcDbEntity
  8
SUNPOU
 62
     0
370
    -2
100
AcDbBlockReference
  2
_Open30
 10
211.0109965282784
 20
67.65834542263751
 30
0.0
 41
4.0
 42
4.0
 43
4.0
 50
270.0000000000002
  0
INSERT
  5
6FAD
330
41B2
100
AcDbEntity
  8
SUNPOU
 62
     0
370
    -2
100
AcDbBlockReference
  2
_Open30
 10
211.0109965282782
 20
137.6250120893043
 30
0.0
 41
4.0
 42
4.0
 43
4.0
 50
90.00000000000019
  0
MTEXT
  5
6FAE
330
41B2
100
AcDbEntity
  8
SUNPOU
 62
     0
100
AcDbMText
 10
206.6359965282783
 20
102.641678755971
 30
0.0
 40
3.5
 41
0.0
 71
     2
 72
     5
  1
\A1;209.9
  7
SLDTEXTSTYLE0
 11
-0.0000000000000032
 21
1.0
 31
0.0
 73
     1
 44
1.0
1001
ACAD
1000
MTEXTBEGIN
1070
    73
1070
     1
1070
    44
1040
1.0
1070
    74
1070
     0
1000
MTEXTEND
  0
POINT
  5
6FAF
330
41B2
100
AcDbEntity
  8
Defpoints
 62
     0
100
AcDbPoint
 10
290.0149954598072
 20
67.65834542263776
 30
0.0
  0
POINT
  5
6FB0
330
41B2
100
AcDbEntity
  8
Defpoints
 62
     0
100
AcDbPoint
 10
246.6063496752867
 20
137.6250120893044
 30
0.0
  0
POINT
  5
6FB1
330
41B2
100
AcDbEntity
  8
Defpoints
 62
     0
100
AcDbPoint
 10
211.0109965282782
 20
137.6250120893043
 30
0.0
  0
ENDBLK
  5
41B4
330
41B2
100
AcDbEntity
  8
0
100
AcDbBlockEnd
  0
BLOCK
  5
41BD
330
41BC
100
AcDbEntity
  8
0
100
AcDbBlockBegin
  2
_D_9
 70
     0
 10
0.0
 20
0.0
 30
0.0
  3
_D_9
  1

  0
LINE
  5
6FA0
330
41BC
100
AcDbEntity
  8
SUNPOU
 62
     0
370
    -2
100
AcDbLine
 10
289.9524954598072
 20
67.65834542263776
 30
0.0
 11
204.3385590057464
 21
67.65834542263776
 31
0.0
  0
LINE
  5
6FA1
330
41BC
100
AcDbEntity
  8
SUNPOU
 62
     0
370
    -2
100
AcDbLine
 10
243.7771830086204
 20
168.6583454226377
 30
0.0
 11
204.338559005746
 21
168.6583454226377
 31
0.0
  0
LINE
  5
6FA2
330
41BC
100
AcDbEntity
  8
SUNPOU
 62
     0
370
    -2
100
AcDbLine
 10
204.3385590057464
 20
71.65834542263745
 30
0.0
 11
204.3385590057464
 21
164.6583454226376
 31
0.0
  0
INSERT
  5
6FA3
330
41BC
100
AcDbEntity
  8
SUNPOU
 62
     0
370
    -2
100
AcDbBlockReference
  2
_Open30
 10
204.3385590057464
 20
67.65834542263745
 30
0.0
 41
4.0
 42
4.0
 43
4.0
 50
270.0000000000002
  0
INSERT
  5
6FA4
330
41BC
100
AcDbEntity
  8
SUNPOU
 62
     0
370
    -2
100
AcDbBlockReference
  2
_Open30
 10
204.338559005746
 20
168.6583454226376
 30
0.0
 41
4.0
 42
4.0
 43
4.0
 50
90.00000000000019
  0
MTEXT
  5
6FA5
330
41BC
100
AcDbEntity
  8
SUNPOU
 62
     0
100
AcDbMText
 10
199.9635590057462
 20
118.1583454226377
 30
0.0
 40
3.5
 41
0.0
 71
     2
 72
     5
  1
\A1;303
  7
SLDTEXTSTYLE0
 11
-0.0000000000000034
 21
1.0
 31
0.0
 73
     1
 44
1.0
1001
ACAD
1000
MTEXTBEGIN
1070
    73
1070
     1
1070
    44
1040
1.0
1070
    74
1070
     0
1000
MTEXTEND
  0
POINT
  5
6FA6
330
41BC
100
AcDbEntity
  8
Defpoints
 62
     0
100
AcDbPoint
 10
290.0149954598072
 20
67.65834542263776
 30
0.0
  0
POINT
  5
6FA7
330
41BC
100
AcDbEntity
  8
Defpoints
 62
     0
100
AcDbPoint
 10
243.8396830086204
 20
168.6583454226377
 30
0.0
  0
POINT
  5
6FA8
330
41BC
100
AcDbEntity
  8
Defpoints
 62
     0
100
AcDbPoint
 10
204.338559005746
 20
168.6583454226376
 30
0.0
  0
ENDBLK
  5
41BE
330
41BC
100
AcDbEntity
  8
0
100
AcDbBlockEnd
  0
BLOCK
  5
41C8
330
41C7
100
AcDbEntity
  8
0
100
AcDbBlockBegin
  2
_D_10
 70
     0
 10
0.0
 20
0.0
 30
0.0
  3
_D_10
  1

  0
LINE
  5
6F95
330
41C7
100
AcDbEntity
  8
SUNPOU
 62
     0
370
    -2
100
AcDbLine
 10
289.9524954598072
 20
67.65834542263776
 30
0.0
 11
224.1175702332518
 21
67.65834542263776
 31
0.0
  0
LINE
  5
6F96
330
41C7
100
AcDbEntity
  8
SUNPOU
 62
     0
370
    -2
100
AcDbLine
 10
265.6438496752866
 20
70.99167875597109
 30
0.0
 11
224.1175702332518
 21
70.99167875597109
 31
0.0
  0
LINE
  5
6F97
330
41C7
100
AcDbEntity
  8
SUNPOU
 62
     0
370
    -2
100
AcDbLine
 10
224.1175702332518
 20
74.99167875597095
 30
0.0
 11
224.1175702332518
 21
83.60001208930427
 31
0.0
  0
LINE
  5
6F98
330
41C7
100
AcDbEntity
  8
SUNPOU
 62
     0
370
    -2
100
AcDbLine
 10
224.1175702332518
 20
67.65834542263753
 30
0.0
 11
224.1175702332518
 21
70.99167875597095
 31
0.0
  0
LINE
  5
6F99
330
41C7
100
AcDbEntity
  8
SUNPOU
 62
     0
370
    -2
100
AcDbLine
 10
224.1175702332518
 20
63.65834542263754
 30
0.0
 11
224.1175702332518
 21
59.65834542263753
 31
0.0
  0
INSERT
  5
6F9A
330
41C7
100
AcDbEntity
  8
SUNPOU
 62
     0
370
    -2
100
AcDbBlockReference
  2
_Open30
 10
224.1175702332518
 20
67.65834542263753
 30
0.0
 41
4.0
 42
4.0
 43
4.0
 50
90.00000000000047
  0
INSERT
  5
6F9B
330
41C7
100
AcDbEntity
  8
SUNPOU
 62
     0
370
    -2
100
AcDbBlockReference
  2
_Open30
 10
224.1175702332518
 20
70.99167875597095
 30
0.0
 41
4.0
 42
4.0
 43
4.0
 50
270.0000000000005
  0
MTEXT
  5
6F9C
330
41C7
100
AcDbEntity
  8
SUNPOU
 62
     0
100
AcDbMText
 10
219.7425702332517
 20
81.29584542263756
 30
0.0
 40
3.5
 41
0.0
 71
     2
 72
     5
  1
\A1;10
  7
SLDTEXTSTYLE0
 11
-0.0000000000000085
 21
1.0
 31
0.0
 73
     1
 44
1.0
1001
ACAD
1000
MTEXTBEGIN
1070
    73
1070
     1
1070
    44
1040
1.0
1070
    74
1070
     0
1000
MTEXTEND
  0
POINT
  5
6F9D
330
41C7
100
AcDbEntity
  8
Defpoints
 62
     0
100
AcDbPoint
 10
290.0149954598072
 20
67.65834542263776
 30
0.0
  0
POINT
  5
6F9E
330
41C7
100
AcDbEntity
  8
Defpoints
 62
     0
100
AcDbPoint
 10
265.7063496752866
 20
70.99167875597109
 30
0.0
  0
POINT
  5
6F9F
330
41C7
100
AcDbEntity
  8
Defpoints
 62
     0
100
AcDbPoint
 10
224.1175702332518
 20
70.99167875597095
 30
0.0
  0
ENDBLK
  5
41C9
330
41C7
100
AcDbEntity
  8
0
100
AcDbBlockEnd
  0
BLOCK
  5
41D5
330
41D4
100
AcDbEntity
  8
0
100
AcDbBlockBegin
  2
_D_11
 70
     0
 10
0.0
 20
0.0
 30
0.0
  3
_D_11
  1

  0
LINE
  5
6F8C
330
41D4
100
AcDbEntity
  8
SUNPOU
 62
     0
370
    -2
100
AcDbLine
 10
308.8396830086196
 20
67.40530779597927
 30
0.0
 11
308.8396830086196
 21
57.65834542263771
 31
0.0
  0
LINE
  5
6F8D
330
41D4
100
AcDbEntity
  8
SUNPOU
 62
     0
370
    -2
100
AcDbLine
 10
294.0396830086194
 20
65.59584542263777
 30
0.0
 11
294.0396830086194
 21
57.65834542263771
 31
0.0
  0
LINE
  5
6F8E
330
41D4
100
AcDbEntity
  8
SUNPOU
 62
     0
370
    -2
100
AcDbLine
 10
304.8396830086196
 20
57.65834542263771
 30
0.0
 11
298.0396830086194
 21
57.65834542263771
 31
0.0
  0
INSERT
  5
6F8F
330
41D4
100
AcDbEntity
  8
SUNPOU
 62
     0
370
    -2
100
AcDbBlockReference
  2
_Open30
 10
308.8396830086196
 20
57.65834542263771
 30
0.0
 41
4.0
 42
4.0
 43
4.0
  0
INSERT
  5
6F90
330
41D4
100
AcDbEntity
  8
SUNPOU
 62
     0
370
    -2
100
AcDbBlockReference
  2
_Open30
 10
294.0396830086194
 20
57.65834542263771
 30
0.0
 41
4.0
 42
4.0
 43
4.0
 50
180.0
  0
MTEXT
  5
6F91
330
41D4
100
AcDbEntity
  8
SUNPOU
 62
     0
100
AcDbMText
 10
301.4396830086194
 20
62.03334542263771
 30
0.0
 40
3.5
 41
0.0
 71
     2
 72
     5
  1
\A1;44.4
  7
SLDTEXTSTYLE0
 73
     1
 44
1.0
1001
ACAD
1000
MTEXTBEGIN
1070
    73
1070
     1
1070
    44
1040
1.0
1070
    74
1070
     0
1000
MTEXTEND
  0
POINT
  5
6F92
330
41D4
100
AcDbEntity
  8
Defpoints
 62
     0
100
AcDbPoint
 10
308.8396830086196
 20
67.46780779597926
 30
0.0
  0
POINT
  5
6F93
330
41D4
100
AcDbEntity
  8
Defpoints
 62
     0
100
AcDbPoint
 10
294.0396830086194
 20
65.65834542263778
 30
0.0
  0
POINT
  5
6F94
330
41D4
100
AcDbEntity
  8
Defpoints
 62
     0
100
AcDbPoint
 10
294.0396830086194
 20
57.65834542263771
 30
0.0
  0
ENDBLK
  5
41D6
330
41D4
100
AcDbEntity
  8
0
100
AcDbBlockEnd
  0
BLOCK
  5
41E1
330
41E0
100
AcDbEntity
  8
0
100
AcDbBlockBegin
  2
_D_12
 70
     0
 10
0.0
 20
0.0
 30
0.0
  3
_D_12
  1

  0
LINE
  5
6F83
330
41E0
100
AcDbEntity
  8
SUNPOU
 62
     0
370
    -2
100
AcDbLine
 10
308.8396830086196
 20
67.40530779597927
 30
0.0
 11
308.8396830086196
 21
57.65834542263773
 31
0.0
  0
LINE
  5
6F84
330
41E0
100
AcDbEntity
  8
SUNPOU
 62
     0
370
    -2
100
AcDbLine
 10
364.0396830086194
 20
65.59584542263777
 30
0.0
 11
364.0396830086194
 21
57.65834542263773
 31
0.0
  0
LINE
  5
6F85
330
41E0
100
AcDbEntity
  8
SUNPOU
 62
     0
370
    -2
100
AcDbLine
 10
312.8396830086196
 20
57.65834542263773
 30
0.0
 11
360.0396830086194
 21
57.65834542263773
 31
0.0
  0
INSERT
  5
6F86
330
41E0
100
AcDbEntity
  8
SUNPOU
 62
     0
370
    -2
100
AcDbBlockReference
  2
_Open30
 10
308.8396830086196
 20
57.65834542263773
 30
0.0
 41
4.0
 42
4.0
 43
4.0
 50
180.0
  0
INSERT
  5
6F87
330
41E0
100
AcDbEntity
  8
SUNPOU
 62
     0
370
    -2
100
AcDbBlockReference
  2
_Open30
 10
364.0396830086194
 20
57.65834542263773
 30
0.0
 41
4.0
 42
4.0
 43
4.0
  0
MTEXT
  5
6F88
330
41E0
100
AcDbEntity
  8
SUNPOU
 62
     0
100
AcDbMText
 10
336.4396830086195
 20
62.03334542263773
 30
0.0
 40
3.5
 41
0.0
 71
     2
 72
     5
  1
\A1;165.6
  7
SLDTEXTSTYLE0
 73
     1
 44
1.0
1001
ACAD
1000
MTEXTBEGIN
1070
    73
1070
     1
1070
    44
1040
1.0
1070
    74
1070
     0
1000
MTEXTEND
  0
POINT
  5
6F89
330
41E0
100
AcDbEntity
  8
Defpoints
 62
     0
100
AcDbPoint
 10
308.8396830086196
 20
67.46780779597926
 30
0.0
  0
POINT
  5
6F8A
330
41E0
100
AcDbEntity
  8
Defpoints
 62
     0
100
AcDbPoint
 10
364.0396830086194
 20
65.65834542263778
 30
0.0
  0
POINT
  5
6F8B
330
41E0
100
AcDbEntity
  8
Defpoints
 62
     0
100
AcDbPoint
 10
364.0396830086194
 20
57.65834542263773
 30
0.0
  0
ENDBLK
  5
41E2
330
41E0
100
AcDbEntity
  8
0
100
AcDbBlockEnd
  0
BLOCK
  5
41EB
330
41EA
100
AcDbEntity
  8
0
100
AcDbBlockBegin
  2
_D_13
 70
     0
 10
0.0
 20
0.0
 30
0.0
  3
_D_13
  1

  0
LINE
  5
6F7A
330
41EA
100
AcDbEntity
  8
SUNPOU
 62
     0
370
    -2
100
AcDbLine
 10
308.8396830086196
 20
67.40530779597927
 30
0.0
 11
308.8396830086196
 21
51.65834542263772
 31
0.0
  0
LINE
  5
6F7B
330
41EA
100
AcDbEntity
  8
SUNPOU
 62
     0
370
    -2
100
AcDbLine
 10
265.7063496752866
 20
70.92917875597109
 30
0.0
 11
265.7063496752866
 21
51.65834542263772
 31
0.0
  0
LINE
  5
6F7C
330
41EA
100
AcDbEntity
  8
SUNPOU
 62
     0
370
    -2
100
AcDbLine
 10
304.8396830086196
 20
51.65834542263772
 30
0.0
 11
269.7063496752866
 21
51.65834542263772
 31
0.0
  0
INSERT
  5
6F7D
330
41EA
100
AcDbEntity
  8
SUNPOU
 62
     0
370
    -2
100
AcDbBlockReference
  2
_Open30
 10
308.8396830086196
 20
51.65834542263772
 30
0.0
 41
4.0
 42
4.0
 43
4.0
  0
INSERT
  5
6F7E
330
41EA
100
AcDbEntity
  8
SUNPOU
 62
     0
370
    -2
100
AcDbBlockReference
  2
_Open30
 10
265.7063496752866
 20
51.65834542263772
 30
0.0
 41
4.0
 42
4.0
 43
4.0
 50
180.0
  0
MTEXT
  5
6F7F
330
41EA
100
AcDbEntity
  8
SUNPOU
 62
     0
100
AcDbMText
 10
287.2730163419531
 20
56.03334542263772
 30
0.0
 40
3.5
 41
0.0
 71
     2
 72
     5
  1
\A1;129.4
  7
SLDTEXTSTYLE0
 73
     1
 44
1.0
1001
ACAD
1000
MTEXTBEGIN
1070
    73
1070
     1
1070
    44
1040
1.0
1070
    74
1070
     0
1000
MTEXTEND
  0
POINT
  5
6F80
330
41EA
100
AcDbEntity
  8
Defpoints
 62
     0
100
AcDbPoint
 10
308.8396830086196
 20
67.46780779597926
 30
0.0
  0
POINT
  5
6F81
330
41EA
100
AcDbEntity
  8
Defpoints
 62
     0
100
AcDbPoint
 10
265.7063496752866
 20
70.99167875597109
 30
0.0
  0
POINT
  5
6F82
330
41EA
100
AcDbEntity
  8
Defpoints
 62
     0
100
AcDbPoint
 10
265.7063496752866
 20
51.65834542263772
 30
0.0
  0
ENDBLK
  5
41EC
330
41EA
100
AcDbEntity
  8
0
100
AcDbBlockEnd
  0
BLOCK
  5
41F5
330
41F4
100
AcDbEntity
  8
0
100
AcDbBlockBegin
  2
_D_14
 70
     0
 10
0.0
 20
0.0
 30
0.0
  3
_D_14
  1

  0
LINE
  5
6F71
330
41F4
100
AcDbEntity
  8
SUNPOU
 62
     0
370
    -2
100
AcDbLine
 10
308.8396830086196
 20
67.40530779597927
 30
0.0
 11
308.8396830086196
 21
51.65834542263772
 31
0.0
  0
LINE
  5
6F72
330
41F4
100
AcDbEntity
  8
SUNPOU
 62
     0
370
    -2
100
AcDbLine
 10
372.3730163419533
 20
70.92917875597109
 30
0.0
 11
372.3730163419533
 21
51.65834542263772
 31
0.0
  0
LINE
  5
6F73
330
41F4
100
AcDbEntity
  8
SUNPOU
 62
     0
370
    -2
100
AcDbLine
 10
312.8396830086196
 20
51.65834542263772
 30
0.0
 11
368.3730163419533
 21
51.65834542263772
 31
0.0
  0
INSERT
  5
6F74
330
41F4
100
AcDbEntity
  8
SUNPOU
 62
     0
370
    -2
100
AcDbBlockReference
  2
_Open30
 10
308.8396830086196
 20
51.65834542263772
 30
0.0
 41
4.0
 42
4.0
 43
4.0
 50
180.0
  0
INSERT
  5
6F75
330
41F4
100
AcDbEntity
  8
SUNPOU
 62
     0
370
    -2
100
AcDbBlockReference
  2
_Open30
 10
372.3730163419533
 20
51.65834542263772
 30
0.0
 41
4.0
 42
4.0
 43
4.0
  0
MTEXT
  5
6F76
330
41F4
100
AcDbEntity
  8
SUNPOU
 62
     0
100
AcDbMText
 10
340.6063496752864
 20
56.03334542263772
 30
0.0
 40
3.5
 41
0.0
 71
     2
 72
     5
  1
\A1;190.6
  7
SLDTEXTSTYLE0
 73
     1
 44
1.0
1001
ACAD
1000
MTEXTBEGIN
1070
    73
1070
     1
1070
    44
1040
1.0
1070
    74
1070
     0
1000
MTEXTEND
  0
POINT
  5
6F77
330
41F4
100
AcDbEntity
  8
Defpoints
 62
     0
100
AcDbPoint
 10
308.8396830086196
 20
67.46780779597926
 30
0.0
  0
POINT
  5
6F78
330
41F4
100
AcDbEntity
  8
Defpoints
 62
     0
100
AcDbPoint
 10
372.3730163419533
 20
70.99167875597109
 30
0.0
  0
POINT
  5
6F79
330
41F4
100
AcDbEntity
  8
Defpoints
 62
     0
100
AcDbPoint
 10
372.3730163419533
 20
51.65834542263772
 30
0.0
  0
ENDBLK
  5
41F6
330
41F4
100
AcDbEntity
  8
0
100
AcDbBlockEnd
  0
BLOCK
  5
41FF
330
41FE
100
AcDbEntity
  8
0
100
AcDbBlockBegin
  2
_D_15
 70
     0
 10
0.0
 20
0.0
 30
0.0
  3
_D_15
  1

  0
LINE
  5
6F68
330
41FE
100
AcDbEntity
  8
SUNPOU
 62
     0
370
    -2
100
AcDbLine
 10
368.1268705574328
 20
67.65834542263776
 30
0.0
 11
429.7168831973958
 21
67.65834542263776
 31
0.0
  0
LINE
  5
6F69
330
41FE
100
AcDbEntity
  8
SUNPOU
 62
     0
370
    -2
100
AcDbLine
 10
407.4460498640617
 20
87.32501208930418
 30
0.0
 11
429.7168831973957
 21
87.32501208930418
 31
0.0
  0
LINE
  5
6F6A
330
41FE
100
AcDbEntity
  8
SUNPOU
 62
     0
370
    -2
100
AcDbLine
 10
429.7168831973958
 20
71.65834542263796
 30
0.0
 11
429.7168831973958
 21
83.32501208930425
 31
0.0
  0
INSERT
  5
6F6B
330
41FE
100
AcDbEntity
  8
SUNPOU
 62
     0
370
    -2
100
AcDbBlockReference
  2
_Open30
 10
429.7168831973958
 20
67.65834542263796
 30
0.0
 41
4.0
 42
4.0
 43
4.0
 50
270.0000000000003
  0
INSERT
  5
6F6C
330
41FE
100
AcDbEntity
  8
SUNPOU
 62
     0
370
    -2
100
AcDbBlockReference
  2
_Open30
 10
429.7168831973957
 20
87.32501208930425
 30
0.0
 41
4.0
 42
4.0
 43
4.0
 50
90.00000000000033
  0
MTEXT
  5
6F6D
330
41FE
100
AcDbEntity
  8
SUNPOU
 62
     0
100
AcDbMText
 10
425.3418831973958
 20
77.49167875597095
 30
0.0
 40
3.5
 41
0.0
 71
     2
 72
     5
  1
\A1;59
  7
SLDTEXTSTYLE0
 11
-0.0000000000000058
 21
1.0
 31
0.0
 73
     1
 44
1.0
1001
ACAD
1000
MTEXTBEGIN
1070
    73
1070
     1
1070
    44
1040
1.0
1070
    74
1070
     0
1000
MTEXTEND
  0
POINT
  5
6F6E
330
41FE
100
AcDbEntity
  8
Defpoints
 62
     0
100
AcDbPoint
 10
368.0643705574328
 20
67.65834542263776
 30
0.0
  0
POINT
  5
6F6F
330
41FE
100
AcDbEntity
  8
Defpoints
 62
     0
100
AcDbPoint
 10
407.3835498640617
 20
87.32501208930418
 30
0.0
  0
POINT
  5
6F70
330
41FE
100
AcDbEntity
  8
Defpoints
 62
     0
100
AcDbPoint
 10
429.7168831973957
 20
87.32501208930425
 30
0.0
  0
ENDBLK
  5
4200
330
41FE
100
AcDbEntity
  8
0
100
AcDbBlockEnd
  0
BLOCK
  5
4209
330
4208
100
AcDbEntity
  8
0
100
AcDbBlockBegin
  2
_D_16
 70
     0
 10
0.0
 20
0.0
 30
0.0
  3
_D_16
  1

  0
LINE
  5
6F5F
330
4208
100
AcDbEntity
  8
SUNPOU
 62
     0
370
    -2
100
AcDbLine
 10
365.4019853550253
 20
90.22084542263774
 30
0.0
 11
365.4019853550253
 21
103.0912685738406
 31
0.0
  0
LINE
  5
6F60
330
4208
100
AcDbEntity
  8
SUNPOU
 62
     0
370
    -2
100
AcDbLine
 10
419.7168831973955
 20
87.3875120893045
 30
0.0
 11
419.7168831973955
 21
103.0912685738406
 31
0.0
  0
LINE
  5
6F61
330
4208
100
AcDbEntity
  8
SUNPOU
 62
     0
370
    -2
100
AcDbLine
 10
369.4019853550253
 20
103.0912685738406
 30
0.0
 11
415.7168831973955
 21
103.0912685738406
 31
0.0
  0
INSERT
  5
6F62
330
4208
100
AcDbEntity
  8
SUNPOU
 62
     0
370
    -2
100
AcDbBlockReference
  2
_Open30
 10
365.4019853550253
 20
103.0912685738406
 30
0.0
 41
4.0
 42
4.0
 43
4.0
 50
180.0
  0
INSERT
  5
6F63
330
4208
100
AcDbEntity
  8
SUNPOU
 62
     0
370
    -2
100
AcDbBlockReference
  2
_Open30
 10
419.7168831973955
 20
103.0912685738406
 30
0.0
 41
4.0
 42
4.0
 43
4.0
  0
MTEXT
  5
6F64
330
4208
100
AcDbEntity
  8
SUNPOU
 62
     0
100
AcDbMText
 10
392.5594342762104
 20
107.4662685738406
 30
0.0
 40
3.5
 41
0.0
 71
     2
 72
     5
  1
\A1;約2000
  7
SLDTEXTSTYLE0
 73
     1
 44
1.0
1001
ACAD
1000
MTEXTBEGIN
1070
    73
1070
     1
1070
    44
1040
1.0
1070
    74
1070
     0
1000
MTEXTEND
  0
POINT
  5
6F65
330
4208
100
AcDbEntity
  8
Defpoints
 62
     0
100
AcDbPoint
 10
365.4019853550253
 20
90.15834542263775
 30
0.0
  0
POINT
  5
6F66
330
4208
100
AcDbEntity
  8
Defpoints
 62
     0
100
AcDbPoint
 10
419.7168831973955
 20
87.32501208930449
 30
0.0
  0
POINT
  5
6F67
330
4208
100
AcDbEntity
  8
Defpoints
 62
     0
100
AcDbPoint
 10
419.7168831973955
 20
103.0912685738406
 30
0.0
  0
ENDBLK
  5
420A
330
4208
100
AcDbEntity
  8
0
100
AcDbBlockEnd
  0
BLOCK
  5
4213
330
4212
100
AcDbEntity
  8
0
100
AcDbBlockBegin
  2
SW_NOTE_0_16
 70
     0
 10
0.0
 20
0.0
 30
0.0
  3
SW_NOTE_0_16
  1

  0
LINE
  5
4215
330
4212
100
AcDbEntity
  8
SLD-0
 62
     0
100
AcDbLine
 10
-20.47298630349664
 20
0.0
 30
0.0
 11
0.0
 21
0.0
 31
0.0
  0
MTEXT
  5
4216
330
4212
100
AcDbEntity
  8
SLD-0
 62
     0
100
AcDbMText
 10
-20.90147162572431
 20
4.59691805092656
 30
0.0
 40
3.5
 41
0.0
 71
     1
 72
     1
  1
安全カバー
  7
SLDTEXTSTYLE0
 73
     1
 44
1.0
1001
ACAD
1000
MTEXTBEGIN
1070
    73
1070
     1
1070
    44
1040
1.0
1070
    74
1070
     0
1000
MTEXTEND
  0
ENDBLK
  5
4214
330
4212
100
AcDbEntity
  8
0
100
AcDbBlockEnd
  0
BLOCK
  5
421A
330
4219
100
AcDbEntity
  8
0
100
AcDbBlockBegin
  2
_Dot
 70
     0
 10
0.0
 20
0.0
 30
0.0
  3
_Dot
  1

  0
LWPOLYLINE
  5
421C
330
4219
100
AcDbEntity
  8
0
  6
ByBlock
 62
     0
100
AcDbPolyline
 90
        2
 70
     1
 43
0.5
 10
-0.25
 20
0.0
 42
1.0
 10
0.25
 20
0.0
 42
1.0
  0
LINE
  5
421D
330
4219
100
AcDbEntity
  8
0
  6
ByBlock
 62
     0
370
    -2
100
AcDbLine
 10
-0.5
 20
0.0
 30
0.0
 11
-1.0
 21
0.0
 31
0.0
  0
ENDBLK
  5
421B
330
4219
100
AcDbEntity
  8
0
100
AcDbBlockEnd
  0
BLOCK
  5
4B23
330
4B22
100
AcDbEntity
  8
0
100
AcDbBlockBegin
  2
_D_17
 70
     0
 10
0.0
 20
0.0
 30
0.0
  3
_D_17
  1

  0
LINE
  5
6FD6
330
4B22
100
AcDbEntity
  8
SUNPOU
 62
     0
370
    -2
100
AcDbLine
 10
44.58749915540953
 20
376.9240176473852
 30
0.0
 11
44.58749915540953
 21
398.8859990782104
 31
0.0
  0
LINE
  5
6FD7
330
4B22
100
AcDbEntity
  8
SUNPOU
 62
     0
370
    -2
100
AcDbLine
 10
164.5874991554095
 20
376.9240176473852
 30
0.0
 11
164.5874991554095
 21
398.8859990782104
 31
0.0
  0
LINE
  5
6FD8
330
4B22
100
AcDbEntity
  8
SUNPOU
 62
     0
370
    -2
100
AcDbLine
 10
48.58749915540953
 20
398.8859990782104
 30
0.0
 11
160.5874991554095
 21
398.8859990782104
 31
0.0
  0
INSERT
  5
6FD9
330
4B22
100
AcDbEntity
  8
SUNPOU
 62
     0
370
    -2
100
AcDbBlockReference
  2
_Open30
 10
44.58749915540953
 20
398.8859990782104
 30
0.0
 41
4.0
 42
4.0
 43
4.0
 50
180.0
  0
INSERT
  5
6FDA
330
4B22
100
AcDbEntity
  8
SUNPOU
 62
     0
370
    -2
100
AcDbBlockReference
  2
_Open30
 10
164.5874991554095
 20
398.8859990782104
 30
0.0
 41
4.0
 42
4.0
 43
4.0
  0
MTEXT
  5
6FDB
330
4B22
100
AcDbEntity
  8
SUNPOU
 62
     0
100
AcDbMText
 10
104.5874991554095
 20
403.2609990782104
 30
0.0
 40
3.5
 41
0.0
 71
     2
 72
     5
  1
\A1;360
  7
SLDTEXTSTYLE0
 73
     1
 44
1.0
1001
ACAD
1000
MTEXTBEGIN
1070
    73
1070
     1
1070
    44
1040
1.0
1070
    74
1070
     0
1000
MTEXTEND
  0
POINT
  5
6FDC
330
4B22
100
AcDbEntity
  8
Defpoints
 62
     0
100
AcDbPoint
 10
44.58749915540953
 20
376.8615176473852
 30
0.0
  0
POINT
  5
6FDD
330
4B22
100
AcDbEntity
  8
Defpoints
 62
     0
100
AcDbPoint
 10
164.5874991554095
 20
376.8615176473852
 30
0.0
  0
POINT
  5
6FDE
330
4B22
100
AcDbEntity
  8
Defpoints
 62
     0
100
AcDbPoint
 10
164.5874991554095
 20
398.8859990782104
 30
0.0
  0
ENDBLK
  5
4B24
330
4B22
100
AcDbEntity
  8
0
100
AcDbBlockEnd
  0
BLOCK
  5
4B2D
330
4B2C
100
AcDbEntity
  8
0
100
AcDbBlockBegin
  2
_D_18
 70
     0
 10
0.0
 20
0.0
 30
0.0
  3
_D_18
  1

  0
LINE
  5
6FCD
330
4B2C
100
AcDbEntity
  8
SUNPOU
 62
     0
370
    -2
100
AcDbLine
 10
165.9661400555637
 20
326.8455288861883
 30
0.0
 11
179.9199919226228
 21
326.8455288861883
 31
0.0
  0
LINE
  5
6FCE
330
4B2C
100
AcDbEntity
  8
SUNPOU
 62
     0
370
    -2
100
AcDbLine
 10
104.6499991554095
 20
261.8455288861885
 30
0.0
 11
179.9199919226231
 21
261.8455288861885
 31
0.0
  0
LINE
  5
6FCF
330
4B2C
100
AcDbEntity
  8
SUNPOU
 62
     0
370
    -2
100
AcDbLine
 10
179.9199919226228
 20
322.8455288861884
 30
0.0
 11
179.9199919226228
 21
265.8455288861889
 31
0.0
  0
INSERT
  5
6FD0
330
4B2C
100
AcDbEntity
  8
SUNPOU
 62
     0
370
    -2
100
AcDbBlockReference
  2
_Open30
 10
179.9199919226228
 20
326.8455288861883
 30
0.0
 41
4.0
 42
4.0
 43
4.0
 50
90.00000000000019
  0
INSERT
  5
6FD1
330
4B2C
100
AcDbEntity
  8
SUNPOU
 62
     0
370
    -2
100
AcDbBlockReference
  2
_Open30
 10
179.9199919226231
 20
261.8455288861889
 30
0.0
 41
4.0
 42
4.0
 43
4.0
 50
270.0000000000002
  0
MTEXT
  5
6FD2
330
4B2C
100
AcDbEntity
  8
SUNPOU
 62
     0
100
AcDbMText
 10
175.544991922623
 20
294.3455288861884
 30
0.0
 40
3.5
 41
0.0
 71
     2
 72
     5
  1
\A1;195
  7
SLDTEXTSTYLE0
 11
-0.0000000000000035
 21
1.0
 31
0.0
 73
     1
 44
1.0
1001
ACAD
1000
MTEXTBEGIN
1070
    73
1070
     1
1070
    44
1040
1.0
1070
    74
1070
     0
1000
MTEXTEND
  0
POINT
  5
6FD3
330
4B2C
100
AcDbEntity
  8
Defpoints
 62
     0
100
AcDbPoint
 10
165.9036400555637
 20
326.8455288861883
 30
0.0
  0
POINT
  5
6FD4
330
4B2C
100
AcDbEntity
  8
Defpoints
 62
     0
100
AcDbPoint
 10
104.5874991554095
 20
261.8455288861885
 30
0.0
  0
POINT
  5
6FD5
330
4B2C
100
AcDbEntity
  8
Defpoints
 62
     0
100
AcDbPoint
 10
179.9199919226231
 20
261.8455288861889
 30
0.0
  0
ENDBLK
  5
4B2E
330
4B2C
100
AcDbEntity
  8
0
100
AcDbBlockEnd
  0
BLOCK
  5
4B37
330
4B36
100
AcDbEntity
  8
0
100
AcDbBlockBegin
  2
_D_19
 70
     0
 10
0.0
 20
0.0
 30
0.0
  3
_D_19
  1

  0
LINE
  5
6FC4
330
4B36
100
AcDbEntity
  8
SUNPOU
 62
     0
370
    -2
100
AcDbLine
 10
152.9993212499394
 20
388.5121955528552
 30
0.0
 11
188.1475291585077
 21
388.5121955528552
 31
0.0
  0
LINE
  5
6FC5
330
4B36
100
AcDbEntity
  8
SUNPOU
 62
     0
370
    -2
100
AcDbLine
 10
104.6499991554095
 20
261.8455288861885
 30
0.0
 11
188.1475291585081
 21
261.8455288861885
 31
0.0
  0
LINE
  5
6FC6
330
4B36
100
AcDbEntity
  8
SUNPOU
 62
     0
370
    -2
100
AcDbLine
 10
188.1475291585077
 20
384.5121955528553
 30
0.0
 11
188.1475291585077
 21
265.8455288861889
 31
0.0
  0
INSERT
  5
6FC7
330
4B36
100
AcDbEntity
  8
SUNPOU
 62
     0
370
    -2
100
AcDbBlockReference
  2
_Open30
 10
188.1475291585077
 20
388.5121955528553
 30
0.0
 41
4.0
 42
4.0
 43
4.0
 50
90.00000000000019
  0
INSERT
  5
6FC8
330
4B36
100
AcDbEntity
  8
SUNPOU
 62
     0
370
    -2
100
AcDbBlockReference
  2
_Open30
 10
188.1475291585081
 20
261.8455288861889
 30
0.0
 41
4.0
 42
4.0
 43
4.0
 50
270.0000000000002
  0
MTEXT
  5
6FC9
330
4B36
100
AcDbEntity
  8
SUNPOU
 62
     0
100
AcDbMText
 10
183.7725291585079
 20
325.1788622195219
 30
0.0
 40
3.5
 41
0.0
 71
     2
 72
     5
  1
\A1;380
  7
SLDTEXTSTYLE0
 11
-0.0000000000000036
 21
1.0
 31
0.0
 73
     1
 44
1.0
1001
ACAD
1000
MTEXTBEGIN
1070
    73
1070
     1
1070
    44
1040
1.0
1070
    74
1070
     0
1000
MTEXTEND
  0
POINT
  5
6FCA
330
4B36
100
AcDbEntity
  8
Defpoints
 62
     0
100
AcDbPoint
 10
152.9368212499394
 20
388.5121955528552
 30
0.0
  0
POINT
  5
6FCB
330
4B36
100
AcDbEntity
  8
Defpoints
 62
     0
100
AcDbPoint
 10
104.5874991554095
 20
261.8455288861885
 30
0.0
  0
POINT
  5
6FCC
330
4B36
100
AcDbEntity
  8
Defpoints
 62
     0
100
AcDbPoint
 10
188.1475291585081
 20
261.8455288861889
 30
0.0
  0
ENDBLK
  5
4B38
330
4B36
100
AcDbEntity
  8
0
100
AcDbBlockEnd
  0
BLOCK
  5
4B41
330
4B40
100
AcDbEntity
  8
0
100
AcDbBlockBegin
  2
_D_20
 70
     0
 10
0.0
 20
0.0
 30
0.0
  3
_D_20
  1

  0
LINE
  5
6FBB
330
4B40
100
AcDbEntity
  8
SUNPOU
 62
     0
370
    -2
100
AcDbLine
 10
149.6545673728942
 20
390.378862219522
 30
0.0
 11
194.1475291585075
 21
390.378862219522
 31
0.0
  0
LINE
  5
6FBC
330
4B40
100
AcDbEntity
  8
SUNPOU
 62
     0
370
    -2
100
AcDbLine
 10
104.6499991554095
 20
261.8455288861885
 30
0.0
 11
194.147529158508
 21
261.8455288861885
 31
0.0
  0
LINE
  5
6FBD
330
4B40
100
AcDbEntity
  8
SUNPOU
 62
     0
370
    -2
100
AcDbLine
 10
194.1475291585075
 20
386.3788622195222
 30
0.0
 11
194.1475291585075
 21
265.8455288861889
 31
0.0
  0
INSERT
  5
6FBE
330
4B40
100
AcDbEntity
  8
SUNPOU
 62
     0
370
    -2
100
AcDbBlockReference
  2
_Open30
 10
194.1475291585075
 20
390.3788622195222
 30
0.0
 41
4.0
 42
4.0
 43
4.0
 50
90.00000000000019
  0
INSERT
  5
6FBF
330
4B40
100
AcDbEntity
  8
SUNPOU
 62
     0
370
    -2
100
AcDbBlockReference
  2
_Open30
 10
194.147529158508
 20
261.8455288861889
 30
0.0
 41
4.0
 42
4.0
 43
4.0
 50
270.0000000000002
  0
MTEXT
  5
6FC0
330
4B40
100
AcDbEntity
  8
SUNPOU
 62
     0
100
AcDbMText
 10
189.7725291585077
 20
326.1121955528553
 30
0.0
 40
3.5
 41
0.0
 71
     2
 72
     5
  1
\A1;385.6
  7
SLDTEXTSTYLE0
 11
-0.0000000000000035
 21
1.0
 31
0.0
 73
     1
 44
1.0
1001
ACAD
1000
MTEXTBEGIN
1070
    73
1070
     1
1070
    44
1040
1.0
1070
    74
1070
     0
1000
MTEXTEND
  0
POINT
  5
6FC1
330
4B40
100
AcDbEntity
  8
Defpoints
 62
     0
100
AcDbPoint
 10
149.5920673728942
 20
390.378862219522
 30
0.0
  0
POINT
  5
6FC2
330
4B40
100
AcDbEntity
  8
Defpoints
 62
     0
100
AcDbPoint
 10
104.5874991554095
 20
261.8455288861885
 30
0.0
  0
POINT
  5
6FC3
330
4B40
100
AcDbEntity
  8
Defpoints
 62
     0
100
AcDbPoint
 10
194.147529158508
 20
261.8455288861889
 30
0.0
  0
ENDBLK
  5
4B42
330
4B40
100
AcDbEntity
  8
0
100
AcDbBlockEnd
  0
BLOCK
  5
4B4A
330
4B49
100
AcDbEntity
  8
0
100
AcDbBlockBegin
  2
SW_CENTERMARKSYMBOL_1
 70
     0
 10
0.0
 20
0.0
 30
0.0
  3
SW_CENTERMARKSYMBOL_1
  1

  0
LINE
  5
4B4C
330
4B49
100
AcDbEntity
  8
SLD-0
 62
     0
100
AcDbLine
 10
0.0
 20
0.0
 30
0.0
 11
0.0
 21
0.8333333333332969
 31
0.0
  0
LINE
  5
4B4D
330
4B49
100
AcDbEntity
  8
SLD-0
 62
     0
100
AcDbLine
 10
0.0
 20
0.0
 30
0.0
 11
-0.8333333333333387
 21
0.0
 31
0.0
  0
LINE
  5
4B4E
330
4B49
100
AcDbEntity
  8
SLD-0
 62
     0
100
AcDbLine
 10
0.0
 20
0.0
 30
0.0
 11
0.0
 21
-0.8333333333332969
 31
0.0
  0
LINE
  5
4B4F
330
4B49
100
AcDbEntity
  8
SLD-0
 62
     0
100
AcDbLine
 10
0.0
 20
0.0
 30
0.0
 11
0.8333333333333248
 21
0.0
 31
0.0
  0
LINE
  5
4B50
330
4B49
100
AcDbEntity
  8
SLD-0
 62
     0
100
AcDbLine
 10
0.0
 20
1.666666666666649
 30
0.0
 11
0.0
 21
65.5556785843115
 31
0.0
  0
LINE
  5
4B51
330
4B49
100
AcDbEntity
  8
SLD-0
 62
     0
100
AcDbLine
 10
-1.666666666666677
 20
0.0
 30
0.0
 11
-61.69388181290917
 21
0.0
 31
0.0
  0
LINE
  5
4B52
330
4B49
100
AcDbEntity
  8
SLD-0
 62
     0
100
AcDbLine
 10
0.0
 20
-1.666666666666649
 30
0.0
 11
0.0
 21
-67.80901809055056
 31
0.0
  0
LINE
  5
4B53
330
4B49
100
AcDbEntity
  8
SLD-0
 62
     0
100
AcDbLine
 10
1.666666666666663
 20
0.0
 30
0.0
 11
61.31614090015428
 21
0.0
 31
0.0
  0
ENDBLK
  5
4B4B
330
4B49
100
AcDbEntity
  8
0
100
AcDbBlockEnd
  0
BLOCK
  5
53B9
330
53B8
100
AcDbEntity
  8
0
100
AcDbBlockBegin
  2
SW_NOTE_0_17
 70
     0
 10
0.0
 20
0.0
 30
0.0
  3
SW_NOTE_0_17
  1

  0
LINE
  5
53BB
330
53B8
100
AcDbEntity
  8
SLD-0
 62
     0
100
AcDbLine
 10
-44.91465692989843
 20
0.0
 30
0.0
 11
0.0
 21
0.0
 31
0.0
  0
MTEXT
  5
53BC
330
53B8
100
AcDbEntity
  8
SLD-0
 62
     0
100
AcDbMText
 10
-45.40669041836475
 20
4.580935723094814
 30
0.0
 40
3.5
 41
0.0
 71
     1
 72
     1
  1
排出補助板(オプション)
  7
SLDTEXTSTYLE0
 73
     1
 44
1.0
1001
ACAD
1000
MTEXTBEGIN
1070
    73
1070
     1
1070
    44
1040
1.0
1070
    74
1070
     0
1000
MTEXTEND
  0
ENDBLK
  5
53BA
330
53B8
100
AcDbEntity
  8
0
100
AcDbBlockEnd
  0
BLOCK
  5
53C0
330
53BF
100
AcDbEntity
  8
0
100
AcDbBlockBegin
  2
SW_NOTE_0_18
 70
     0
 10
0.0
 20
0.0
 30
0.0
  3
SW_NOTE_0_18
  1

  0
LINE
  5
53C2
330
53BF
100
AcDbEntity
  8
SLD-0
 62
     0
100
AcDbLine
 10
-28.62020736210375
 20
0.0
 30
0.0
 11
0.0
 21
0.0
 31
0.0
  0
MTEXT
  5
53C3
330
53BF
100
AcDbEntity
  8
SLD-0
 62
     0
100
AcDbMText
 10
-29.07486599846532
 20
4.512465496879835
 30
0.0
 40
3.5
 41
0.0
 71
     1
 72
     1
  1
飛散防止カバー
  7
SLDTEXTSTYLE0
 73
     1
 44
1.0
1001
ACAD
1000
MTEXTBEGIN
1070
    73
1070
     1
1070
    44
1040
1.0
1070
    74
1070
     0
1000
MTEXTEND
  0
ENDBLK
  5
53C1
330
53BF
100
AcDbEntity
  8
0
100
AcDbBlockEnd
  0
BLOCK
  5
53C7
330
53C6
100
AcDbEntity
  8
0
100
AcDbBlockBegin
  2
SW_NOTE_0_19
 70
     0
 10
0.0
 20
0.0
 30
0.0
  3
SW_NOTE_0_19
  1

  0
LINE
  5
53C9
330
53C6
100
AcDbEntity
  8
SLD-0
 62
     0
100
AcDbLine
 10
12.11590165622222
 20
0.0
 30
0.0
 11
0.0
 21
0.0
 31
0.0
  0
MTEXT
  5
53CA
330
53C6
100
AcDbEntity
  8
SLD-0
 62
     0
100
AcDbMText
 10
0.4536007283159061
 20
4.515098350162006
 30
0.0
 40
3.5
 41
0.0
 71
     1
 72
     1
  1
おもり
  7
SLDTEXTSTYLE0
 73
     1
 44
1.0
1001
ACAD
1000
MTEXTBEGIN
1070
    73
1070
     1
1070
    44
1040
1.0
1070
    74
1070
     0
1000
MTEXTEND
  0
ENDBLK
  5
53C8
330
53C6
100
AcDbEntity
  8
0
100
AcDbBlockEnd
  0
BLOCK
  5
5418
330
5417
100
AcDbEntity
  8
0
100
AcDbBlockBegin
  2
SW_NOTE_0_20
 70
     0
 10
0.0
 20
0.0
 30
0.0
  3
SW_NOTE_0_20
  1

  0
LINE
  5
541A
330
5417
100
AcDbEntity
  8
SLD-0
 62
     0
100
AcDbLine
 10
-48.98826932184719
 20
0.0
 30
0.0
 11
0.0
 21
0.0
 31
0.0
  0
MTEXT
  5
541B
330
5417
100
AcDbEntity
  8
SLD-0
 62
     0
100
AcDbMText
 10
-49.42634982313204
 20
4.591156049965627
 30
0.0
 40
3.5
 41
0.0
 71
     1
 72
     1
  1
研磨器セット
  7
SLDTEXTSTYLE0
 73
     1
 44
1.0
1001
ACAD
1000
MTEXTBEGIN
1070
    73
1070
     1
1070
    44
1040
1.0
1070
    74
1070
     0
1000
MTEXTEND
  0
MTEXT
  5
541C
330
5417
100
AcDbEntity
  8
SLD-0
 62
     0
100
AcDbMText
 10
-24.98468292202044
 20
4.591156049965627
 30
0.0
 40
3.5
 41
0.0
 71
     1
 72
     1
  1
(オプション)
  7
SLDTEXTSTYLE0
 73
     1
 44
1.0
1001
ACAD
1000
MTEXTBEGIN
1070
    73
1070
     1
1070
    44
1040
1.0
1070
    74
1070
     0
1000
MTEXTEND
  0
LINE
  5
541D
330
5417
100
AcDbEntity
  8
SLD-0
 62
     0
100
AcDbLine
 10
-24.98468292202044
 20
2.257822716632294
 30
0.0
 11
-7.548032922020439
 21
2.257822716632294
 31
0.0
  0
ENDBLK
  5
5419
330
5417
100
AcDbEntity
  8
0
100
AcDbBlockEnd
  0
ENDSEC
  0
SECTION
  2
ENTITIES
  0
INSERT
  5
3A4F
330
1F
100
AcDbEntity
  8
0
  6
Continuous
 62
     7
100
AcDbBlockReference
  2
SW_BROKEN_VIEW_0
 10
0.0
 20
0.0
 30
0.0
  0
LINE
  5
C538
330
1F
100
AcDbEntity
  8
WAKU
 62
     3
380
     1
100
AcDbLine
 10
-1150.978648968492
 20
-503.9922283190126
 30
0.0
 11
489.0213510315074
 21
-503.9922283190126
 31
0.0
  0
LINE
  5
C539
330
1F
100
AcDbEntity
  8
WAKU
 62
     3
380
     1
100
AcDbLine
 10
489.0213510315074
 20
-503.9922283190126
 30
0.0
 11
489.0213510315074
 21
640.0077716809874
 31
0.0
  0
LINE
  5
C53A
330
1F
100
AcDbEntity
  8
WAKU
 62
     3
380
     1
100
AcDbLine
 10
489.0213510315074
 20
640.0077716809874
 30
0.0
 11
-1150.978648968492
 21
640.0077716809874
 31
0.0
  0
LINE
  5
C53B
330
1F
100
AcDbEntity
  8
WAKU
 62
     3
380
     1
100
AcDbLine
 10
-1150.978648968492
 20
640.0077716809874
 30
0.0
 11
-1150.978648968492
 21
-503.9922283190126
 31
0.0
  0
LINE
  5
C53C
330
1F
100
AcDbEntity
  8
WAKU
 62
     3
380
     1
100
AcDbLine
 10
489.0213510315074
 20
-503.9922283190126
 30
0.0
 11
489.0213510315074
 21
-375.9922283190126
 31
0.0
  0
LINE
  5
C53D
330
1F
100
AcDbEntity
  8
WAKU
 62
     3
380
     1
100
AcDbLine
 10
209.0213510315075
 20
-503.9922283190126
 30
0.0
 11
489.0213510315074
 21
-503.9922283190126
 31
0.0
  0
LINE
  5
C53E
330
1F
100
AcDbEntity
  8
WAKU
 62
     3
380
     1
100
AcDbLine
 10
209.0213510315075
 20
-503.9922283190126
 30
0.0
 11
209.0213510315075
 21
-375.9922283190126
 31
0.0
  0
LINE
  5
C53F
330
1F
100
AcDbEntity
  8
WAKU
 62
     3
380
     1
100
AcDbLine
 10
209.0213510315075
 20
-375.9922283190126
 30
0.0
 11
489.0213510315074
 21
-375.9922283190126
 31
0.0
  0
LINE
  5
C540
330
1F
100
AcDbEntity
  8
WAKU
 62
     3
380
     1
100
AcDbLine
 10
209.0213510315075
 20
-471.9922283190125
 30
0.0
 11
489.0213510315074
 21
-471.9922283190125
 31
0.0
  0
LINE
  5
C541
330
1F
100
AcDbEntity
  8
WAKU
 62
     3
380
     1
100
AcDbLine
 10
209.0213510315075
 20
-455.9922283190125
 30
0.0
 11
489.0213510315074
 21
-455.9922283190125
 31
0.0
  0
LINE
  5
C542
330
1F
100
AcDbEntity
  8
WAKU
 62
     3
380
     1
100
AcDbLine
 10
209.0213510315075
 20
-439.9922283190126
 30
0.0
 11
489.0213510315074
 21
-439.9922283190126
 31
0.0
  0
LINE
  5
C543
330
1F
100
AcDbEntity
  8
WAKU
 62
     3
380
     1
100
AcDbLine
 10
209.0213510315075
 20
-423.9922283190126
 30
0.0
 11
489.0213510315074
 21
-423.9922283190126
 31
0.0
  0
LINE
  5
C544
330
1F
100
AcDbEntity
  8
WAKU
 62
     3
380
     1
100
AcDbLine
 10
209.0213510315075
 20
-391.9922283190126
 30
0.0
 11
489.0213510315074
 21
-391.9922283190126
 31
0.0
  0
LINE
  5
C545
330
1F
100
AcDbEntity
  8
WAKU
 62
     3
380
     1
100
AcDbLine
 10
245.0213510315075
 20
-471.9922283190125
 30
0.0
 11
245.0213510315075
 21
-375.9922283190126
 31
0.0
  0
TEXT
  5
C546
330
1F
100
AcDbEntity
  8
WAKU
 62
     3
380
     1
100
AcDbText
 10
213.4754839149155
 20
-470.2585377557259
 30
0.0
 40
12.0
  1
設計
100
AcDbText
  0
TEXT
  5
C547
330
1F
100
AcDbEntity
  8
WAKU
 62
     3
380
     1
100
AcDbText
 10
213.3296271739309
 20
-454.6767052458094
 30
0.0
 40
12.0
  1
材質
100
AcDbText
  0
TEXT
  5
C548
330
1F
100
AcDbEntity
  8
WAKU
 62
     3
380
     1
100
AcDbText
 10
213.4260962226017
 20
-438.4434564972926
 30
0.0
 40
12.0
  1
図番
100
AcDbText
  0
TEXT
  5
C549
330
1F
100
AcDbEntity
  8
WAKU
 62
     3
380
     1
100
AcDbText
 10
213.3296271739309
 20
-414.3347329221834
 30
0.0
 40
12.0
  1
品名
100
AcDbText
  0
TEXT
  5
C54A
330
1F
100
AcDbEntity
  8
WAKU
 62
     3
380
     1
100
AcDbText
 10
213.1105252580637
 20
-390.6220055108113
 30
0.0
 40
12.0
  1
型式
100
AcDbText
  0
TEXT
  5
C54B
330
1F
100
AcDbEntity
  8
TEXT
 62
     3
380
     1
100
AcDbText
 10
445.6413856983135
 20
-438.0013561256399
 30
0.0
 40
12.0
  1
1/4
100
AcDbText
  0
TEXT
  5
C54C
330
1F
100
AcDbEntity
  8
WAKU
 62
     3
380
     1
100
AcDbText
 10
249.5107373951298
 20
-470.7403894858328
 30
0.0
 40
10.8
  1
年月日：
100
AcDbText
  0
TEXT
  5
C54D
330
1F
100
AcDbEntity
  8
TEXT
 62
     3
380
     1
100
AcDbText
 10
258.2399291310589
 20
-414.1225004795098
 30
0.0
 40
12.0
  1
外形図_
100
AcDbText
  0
TEXT
  5
C54E
330
1F
100
AcDbEntity
  8
WAKU
 62
     3
380
     1
100
AcDbText
 10
212.3330261509977
 20
-496.6734366130693
 30
0.0
 40
16.0
  1
株式会社 中部コーポレーション
100
AcDbText
  0
LINE
  5
C54F
330
1F
100
AcDbEntity
  8
TEXT
 62
     3
380
     1
100
AcDbLine
 10
-1070.978648968492
 20
-403.9922283190126
 30
0.0
 11
-1070.978648968492
 21
-503.9922283190126
 31
0.0
  0
LINE
  5
C550
330
1F
100
AcDbEntity
  8
TEXT
 62
     3
380
     1
100
AcDbLine
 10
-830.9786489684924
 20
-403.9922283190126
 30
0.0
 11
-830.9786489684924
 21
-503.9922283190126
 31
0.0
  0
LINE
  5
C551
330
1F
100
AcDbEntity
  8
TEXT
 62
     3
380
     1
100
AcDbLine
 10
-750.9786489684925
 20
-403.9922283190126
 30
0.0
 11
-750.9786489684925
 21
-503.9922283190126
 31
0.0
  0
LINE
  5
C552
330
1F
100
AcDbEntity
  8
TEXT
 62
     3
380
     1
100
AcDbLine
 10
-1150.978648968492
 20
-403.9922283190126
 30
0.0
 11
-750.9786489684925
 21
-403.9922283190126
 31
0.0
  0
LINE
  5
C553
330
1F
100
AcDbEntity
  8
TEXT
 62
     3
380
     1
100
AcDbLine
 10
-1150.978648968492
 20
-423.9922283190126
 30
0.0
 11
-750.9786489684925
 21
-423.9922283190126
 31
0.0
  0
LINE
  5
C554
330
1F
100
AcDbEntity
  8
TEXT
 62
     3
380
     1
100
AcDbLine
 10
-1150.978648968492
 20
-443.9922283190126
 30
0.0
 11
-750.9786489684925
 21
-443.9922283190126
 31
0.0
  0
LINE
  5
C555
330
1F
100
AcDbEntity
  8
TEXT
 62
     3
380
     1
100
AcDbLine
 10
-1150.978648968492
 20
-463.9922283190125
 30
0.0
 11
-750.9786489684925
 21
-463.9922283190125
 31
0.0
  0
LINE
  5
C556
330
1F
100
AcDbEntity
  8
TEXT
 62
     3
380
     1
100
AcDbLine
 10
-1150.978648968492
 20
-483.9922283190126
 30
0.0
 11
-750.9786489684925
 21
-483.9922283190126
 31
0.0
  0
LINE
  5
C557
330
1F
100
AcDbEntity
  8
TEXT
 62
     3
380
     1
100
AcDbLine
 10
-990.9786489684925
 20
-423.9922283190126
 30
0.0
 11
-990.9786489684925
 21
-503.9922283190126
 31
0.0
  0
LINE
  5
C558
330
1F
100
AcDbEntity
  8
TEXT
 62
     3
380
     1
100
AcDbLine
 10
-910.9786489684925
 20
-423.9922283190126
 30
0.0
 11
-910.9786489684925
 21
-503.9922283190126
 31
0.0
  0
LINE
  5
C559
330
1F
100
AcDbEntity
  8
TEXT
 62
     3
380
     1
100
AcDbLine
 10
-1150.978648968492
 20
-313.9922283190126
 30
0.0
 11
-750.9786489684925
 21
-313.9922283190126
 31
0.0
  0
LINE
  5
C55A
330
1F
100
AcDbEntity
  8
TEXT
 62
     3
380
     1
100
AcDbLine
 10
-1150.978648968492
 20
-293.9922283190126
 30
0.0
 11
-750.9786489684925
 21
-293.9922283190126
 31
0.0
  0
LINE
  5
C55B
330
1F
100
AcDbEntity
  8
TEXT
 62
     3
380
     1
100
AcDbLine
 10
-1150.978648968492
 20
-193.9922283190126
 30
0.0
 11
-750.9786489684925
 21
-193.9922283190126
 31
0.0
  0
LINE
  5
C55C
330
1F
100
AcDbEntity
  8
TEXT
 62
     3
380
     1
100
AcDbLine
 10
-1150.978648968492
 20
-173.9922283190126
 30
0.0
 11
-750.9786489684925
 21
-173.9922283190126
 31
0.0
  0
LINE
  5
C55D
330
1F
100
AcDbEntity
  8
TEXT
 62
     3
380
     1
100
AcDbLine
 10
-1150.978648968492
 20
-153.9922283190126
 30
0.0
 11
-750.9786489684925
 21
-153.9922283190126
 31
0.0
  0
LINE
  5
C55E
330
1F
100
AcDbEntity
  8
TEXT
 62
     3
380
     1
100
AcDbLine
 10
-1150.978648968492
 20
-133.9922283190126
 30
0.0
 11
-750.9786489684925
 21
-133.9922283190126
 31
0.0
  0
LINE
  5
C55F
330
1F
100
AcDbEntity
  8
TEXT
 62
     3
380
     1
100
AcDbLine
 10
-1150.978648968492
 20
-113.9922283190126
 30
0.0
 11
-750.9786489684925
 21
-113.9922283190126
 31
0.0
  0
LINE
  5
C560
330
1F
100
AcDbEntity
  8
TEXT
 62
     3
380
     1
100
AcDbLine
 10
-1150.978648968492
 20
-93.9922283190126
 30
0.0
 11
-750.9786489684925
 21
-93.9922283190126
 31
0.0
  0
LINE
  5
C561
330
1F
100
AcDbEntity
  8
TEXT
 62
     3
380
     1
100
AcDbLine
 10
-1150.978648968492
 20
-73.99222831901261
 30
0.0
 11
-750.9786489684925
 21
-73.99222831901261
 31
0.0
  0
LINE
  5
C562
330
1F
100
AcDbEntity
  8
TEXT
 62
     3
380
     1
100
AcDbLine
 10
-1150.978648968492
 20
-53.99222831901261
 30
0.0
 11
-750.9786489684925
 21
-53.99222831901261
 31
0.0
  0
LINE
  5
C563
330
1F
100
AcDbEntity
  8
TEXT
 62
     3
380
     1
100
AcDbLine
 10
-1150.978648968492
 20
-353.9922283190126
 30
0.0
 11
-750.9786489684925
 21
-353.9922283190126
 31
0.0
  0
LINE
  5
C564
330
1F
100
AcDbEntity
  8
TEXT
 62
     3
380
     1
100
AcDbLine
 10
-750.9786489684925
 20
-353.9922283190126
 30
0.0
 11
-750.9786489684925
 21
-53.99222831901261
 31
0.0
  0
TEXT
  5
C565
330
1F
100
AcDbEntity
  8
TEXT
 62
     3
380
     1
100
AcDbText
 10
-1144.728476510213
 20
-71.4936967601559
 30
0.0
 40
12.0
  1
品名
100
AcDbText
  0
TEXT
  5
C566
330
1F
100
AcDbEntity
  8
TEXT
 62
     3
380
     1
100
AcDbText
 10
-1144.728476510213
 20
-91.4936967601559
 30
0.0
 40
12.0
  1
型式
100
AcDbText
  0
TEXT
  5
C567
330
1F
100
AcDbEntity
  8
TEXT
 62
     3
380
     1
100
AcDbText
 10
-1144.728476510213
 20
-111.4936967601559
 30
0.0
 40
12.0
  1
電源
100
AcDbText
  0
TEXT
  5
C568
330
1F
100
AcDbEntity
  8
TEXT
 62
     3
380
     1
100
AcDbText
 10
-1144.728476510213
 20
-131.4936967601559
 30
0.0
 40
12.0
  1
定格消費電力
100
AcDbText
  0
TEXT
  5
C569
330
1F
100
AcDbEntity
  8
TEXT
 62
     3
380
     1
100
AcDbText
 10
-1144.728476510213
 20
-151.4936967601559
 30
0.0
 40
12.0
  1
定格電流
100
AcDbText
  0
TEXT
  5
C56A
330
1F
100
AcDbEntity
  8
TEXT
 62
     3
380
     1
100
AcDbText
 10
-1144.728476510213
 20
-171.4936967601559
 30
0.0
 40
12.0
  1
定格時間
100
AcDbText
  0
TEXT
  5
C56B
330
1F
100
AcDbEntity
  8
TEXT
 62
     3
380
     1
100
AcDbText
 10
-1144.728476510213
 20
-191.4936967601559
 30
0.0
 40
12.0
  1
氷収容量
100
AcDbText
  0
TEXT
  5
C56C
330
1F
100
AcDbEntity
  8
TEXT
 62
     3
380
     1
100
AcDbText
 10
-1144.728476510213
 20
-211.4936967601559
 30
0.0
 40
12.0
  1
氷削能力
100
AcDbText
  0
TEXT
  5
C56D
330
1F
100
AcDbEntity
  8
TEXT
 62
     3
380
     1
100
AcDbText
 10
-1144.032293177716
 20
-331.4958794871392
 30
0.0
 40
12.0
  1
付属品
100
AcDbText
  0
TEXT
  5
C56E
330
1F
100
AcDbEntity
  8
TEXT
 62
     3
380
     1
100
AcDbText
 10
-1144.728476510213
 20
-291.4936967601559
 30
0.0
 40
12.0
  1
重量
100
AcDbText
  0
TEXT
  5
C56F
330
1F
100
AcDbEntity
  8
TEXT
 62
     3
380
     1
100
AcDbText
 10
-1137.994994420859
 20
-421.3225193104892
 30
0.0
 40
12.0
  1
品　　名
100
AcDbText
  0
TEXT
  5
C570
330
1F
100
AcDbEntity
  8
TEXT
 62
     3
380
     1
100
AcDbText
 10
-1146.929071405074
 20
-441.450863847102
 30
0.0
 40
12.0
  1
排水ホース
100
AcDbText
  0
TEXT
  5
C571
330
1F
100
AcDbEntity
  8
TEXT
 62
     3
380
     1
100
AcDbText
 10
-1146.929071405074
 20
-461.4368668932672
 30
0.0
 40
12.0
  1
電源コード
100
AcDbText
  0
TEXT
  5
C572
330
1F
100
AcDbEntity
  8
TEXT
 62
     3
380
     1
100
AcDbText
 10
-1068.752795499541
 20
-461.4746275767287
 30
0.0
 40
9.600000000000001
  1
長さ
100
AcDbText
  0
TEXT
  5
C573
330
1F
100
AcDbEntity
  8
TEXT
 62
     3
380
     1
100
AcDbText
 10
-1068.752795499541
 20
-441.4746275767287
 30
0.0
 40
9.600000000000001
  1
長さ
100
AcDbText
  0
TEXT
  5
C574
330
1F
100
AcDbEntity
  8
TEXT
 62
     3
380
     1
100
AcDbText
 10
-1043.00049816581
 20
-442.9281550709951
 30
0.0
 40
9.600000000000001
  1
1500mm
100
AcDbText
  0
TEXT
  5
C575
330
1F
100
AcDbEntity
  8
TEXT
 62
     3
380
     1
100
AcDbText
 10
-1042.104791437987
 20
-461.4634300136608
 30
0.0
 40
9.600000000000001
  1
1900mm
100
AcDbText
  0
TEXT
  5
C576
330
1F
100
AcDbEntity
  8
TEXT
 62
     3
380
     1
100
AcDbText
 10
-989.2820949165676
 20
-441.4746275767287
 30
0.0
 40
9.600000000000001
  1
外径
100
AcDbText
  0
TEXT
  5
C577
330
1F
100
AcDbEntity
  8
TEXT
 62
     3
380
     1
100
AcDbText
 10
-951.9748892303926
 20
-441.9591367414842
 30
0.0
 40
9.600000000000001
  1
23mm
100
AcDbText
  0
TEXT
  5
C578
330
1F
100
AcDbEntity
  8
TEXT
 62
     3
380
     1
100
AcDbText
 10
-985.7040471335217
 20
-420.7584787649804
 30
0.0
 40
12.0
  1
寸　　　法
100
AcDbText
  0
TEXT
  5
C579
330
1F
100
AcDbEntity
  8
TEXT
 62
     3
380
     1
100
AcDbText
 10
-907.3888485098171
 20
-441.4746275767287
 30
0.0
 40
9.600000000000001
  1
内径
100
AcDbText
  0
TEXT
  5
C57A
330
1F
100
AcDbEntity
  8
TEXT
 62
     3
380
     1
100
AcDbText
 10
-876.3802619654638
 20
-441.9591367414842
 30
0.0
 40
9.600000000000001
  1
19mm
100
AcDbText
  0
TEXT
  5
C57B
330
1F
100
AcDbEntity
  8
TEXT
 62
     3
380
     1
100
AcDbText
 10
-824.9524916635545
 20
-442.4506004015065
 30
0.0
 40
12.0
  1
切断可_
100
AcDbText
  0
TEXT
  5
C57C
330
1F
100
AcDbEntity
  8
TEXT
 62
     3
380
     1
100
AcDbText
 10
-818.748045662959
 20
-421.3225193104892
 30
0.0
 40
12.0
  1
備　　考
100
AcDbText
  0
TEXT
  5
C57D
330
1F
100
AcDbEntity
  8
TEXT
 62
     3
380
     1
100
AcDbText
 10
-825.1980148759519
 20
-461.6198888991845
 30
0.0
 40
12.0
  1
アース線付
100
AcDbText
  0
LINE
  5
C57E
330
1F
100
AcDbEntity
  8
_0-0_
  6
CENTER2
100
AcDbLine
 10
-1085.44183972414
 20
353.63254528429
 30
0.0
 11
-674.9518707258147
 21
353.63254528429
 31
0.0
  0
LINE
  5
C57F
330
1F
100
AcDbEntity
  8
_0-0_
100
AcDbLine
 10
-1065.521134070134
 20
353.63254528429
 30
0.0
 11
-1063.284342526714
 21
353.63254528429
 31
0.0
  0
ARC
  5
C580
330
1F
100
AcDbEntity
  8
_0-0_
100
AcDbCircle
 10
-900.5211136728773
 20
353.6325298799891
 30
0.0
 40
106.36627030009
100
AcDbArc
 50
222.9359268882091
 51
31.06409915704464
  0
ARC
  5
C581
330
1F
100
AcDbEntity
  8
_0-0_
100
AcDbCircle
 10
-988.8178275092911
 20
420.168876254218
 30
0.0
 40
8.077918278049219
100
AcDbArc
 50
53.00000000000021
 51
233.0000000000002
  0
LINE
  5
C582
330
1F
100
AcDbEntity
  8
_0-0_
100
AcDbLine
 10
-982.4217866247296
 20
428.6567091889492
 30
0.0
 11
-982.0694621096524
 21
428.3912136236613
 31
0.0
  0
LINE
  5
C583
330
1F
100
AcDbEntity
  8
_0-0_
100
AcDbLine
 10
-976.4259346053238
 20
425.8565430484186
 30
0.0
 11
-977.6422967299792
 21
426.773137653844
 31
0.0
  0
ARC
  5
C584
330
1F
100
AcDbEntity
  8
_0-0_
100
AcDbCircle
 10
-900.5211340706324
 20
353.63254528429
 30
0.0
 40
106.8275825234543
100
AcDbArc
 50
211.0898103347351
 51
222.9102155968594
  0
ARC
  5
C585
330
1F
100
AcDbEntity
  8
_0-0_
100
AcDbCircle
 10
-900.5211332065098
 20
353.6325463141118
 30
0.0
 40
107.8399837498239
100
AcDbArc
 50
211.1454901698835
 51
222.8545358387079
  0
LINE
  5
C586
330
1F
100
AcDbEntity
  8
_0-0_
100
AcDbLine
 10
-977.1159242467236
 20
282.1407085815959
 30
0.0
 11
-979.5767725646673
 21
280.2863263649206
 31
0.0
  0
CIRCLE
  5
C587
330
1F
100
AcDbEntity
  8
_0-0_
100
AcDbCircle
 10
-1041.521134070135
 20
353.63254528429
 30
0.0
 40
5.5
  0
LINE
  5
C588
330
1F
100
AcDbEntity
  8
_0-0_
100
AcDbLine
 10
-995.2138683938525
 20
411.6810433194869
 30
0.0
 11
-993.5493292253861
 21
410.4267230875288
 31
0.0
  0
LINE
  5
C589
330
1F
100
AcDbEntity
  8
_0-0_
100
AcDbLine
 10
-993.679240084816
 20
413.7175638701073
 30
0.0
 11
-990.0850821233747
 21
411.0091715815567
 31
0.0
  0
ARC
  5
C58A
330
1F
100
AcDbEntity
  8
_0-0_
100
AcDbCircle
 10
-988.8178275092911
 20
420.168876254218
 30
0.0
 40
10.6279182780492
100
AcDbArc
 50
41.79848063462829
 51
233.0000000000002
  0
LINE
  5
C58B
330
1F
100
AcDbEntity
  8
_0-0_
100
AcDbLine
 10
-983.9564149337673
 20
426.6201886383287
 30
0.0
 11
-980.3622569672716
 21
423.9117963459661
 31
0.0
  0
LINE
  5
C58C
330
1F
100
AcDbEntity
  8
_0-0_
100
AcDbLine
 10
-990.3297692527775
 20
299.7303466392911
 30
0.0
 11
-992.8167070618327
 21
297.856304580924
 31
0.0
  0
ARC
  5
C58D
330
1F
100
AcDbEntity
  8
_0-0_
100
AcDbCircle
 10
-900.5211136728773
 20
353.6325298799891
 30
0.0
 40
108.99462955109
100
AcDbArc
 50
148.5957249159807
 51
137.5112040805342
  0
ARC
  5
C58E
330
1F
100
AcDbEntity
  8
_0-0_
100
AcDbCircle
 10
-900.5211136728773
 20
353.6325298799891
 30
0.0
 40
106.36627030009
100
AcDbArc
 50
147.355484864004
 51
211.06407253559
  0
ARC
  5
C58F
330
1F
100
AcDbEntity
  8
_0-0_
100
AcDbCircle
 10
-900.5211136728773
 20
353.6325298799891
 30
0.0
 40
106.36627030009
100
AcDbArc
 50
42.9359535096694
 51
138.6445150910979
  0
ARC
  5
C590
330
1F
100
AcDbEntity
  8
_0-0_
100
AcDbCircle
 10
-900.5211340706324
 20
353.63254528429
 30
0.0
 40
104.7427227641355
100
AcDbArc
 50
149.5786181362348
 51
210.9717387943104
  0
LINE
  5
C591
330
1F
100
AcDbEntity
  8
_0-0_
100
AcDbLine
 10
-990.8433779146776
 20
406.6696100505591
 30
0.0
 11
-992.0856566798891
 21
407.6057342454423
 31
0.0
  0
ARC
  5
C592
330
1F
100
AcDbEntity
  8
_0-0_
100
AcDbCircle
 10
-900.5211340696373
 20
353.63254528429
 30
0.0
 40
104.7427227641355
100
AcDbArc
 50
223.0264115759798
 51
30.97173879464047
  0
ARC
  5
C593
330
1F
100
AcDbEntity
  8
_0-0_
100
AcDbCircle
 10
-900.5211340696373
 20
353.63254528429
 30
0.0
 40
104.7427227641355
100
AcDbArc
 50
43.02641157672408
 51
136.423430666413
  0
LINE
  5
C594
330
1F
100
AcDbEntity
  8
_0-0_
100
AcDbLine
 10
-823.9263438945416
 20
425.1243819869849
 30
0.0
 11
-821.4654955765979
 21
426.9787642036608
 31
0.0
  0
ARC
  5
C595
330
1F
100
AcDbEntity
  8
_0-0_
100
AcDbCircle
 10
-900.5211340706324
 20
353.6325452842912
 30
0.0
 40
106.8275825234543
100
AcDbArc
 50
31.08981033473512
 51
42.9102155968594
  0
ARC
  5
C596
330
1F
100
AcDbEntity
  8
_0-0_
100
AcDbCircle
 10
-900.5211349347552
 20
353.6325442544689
 30
0.0
 40
107.8399837498239
100
AcDbArc
 50
31.14549016988351
 51
42.85453583870788
  0
ARC
  5
C597
330
1F
100
AcDbEntity
  8
_0-0_
100
AcDbCircle
 10
-1009.695987827183
 20
142.6308364893409
 30
0.0
 40
398.0
100
AcDbArc
 50
43.14775876203297
 51
52.33872749685002
  0
ARC
  5
C598
330
1F
100
AcDbEntity
  8
_0-0_
100
AcDbCircle
 10
-1009.695987827182
 20
564.6342540792388
 30
0.0
 40
398.0
100
AcDbArc
 50
307.66127250315
 51
316.852241237967
  0
ARC
  5
C599
330
1F
100
AcDbEntity
  8
_0-0_
100
AcDbCircle
 10
-1017.796917249261
 20
558.1756795088385
 30
0.0
 40
397.971605224
100
AcDbArc
 50
304.3784920718101
 51
309.1528400531862
  0
LINE
  5
C59A
330
1F
100
AcDbEntity
  8
_0-0_
100
AcDbLine
 10
-810.7124988878027
 20
407.5347439298061
 30
0.0
 11
-808.2255610794327
 21
409.4087859876571
 31
0.0
  0
CIRCLE
  5
C59B
330
1F
100
AcDbEntity
  8
_0-0_
100
AcDbCircle
 10
-820.5211340706325
 20
243.13254528429
 30
0.0
 40
5.5
  0
CIRCLE
  5
C59C
330
1F
100
AcDbEntity
  8
_0-0_
100
AcDbCircle
 10
-820.5211340706325
 20
464.1325452842898
 30
0.0
 40
5.5
  0
LINE
  5
C59D
330
1F
100
AcDbEntity
  8
_0-0_
100
AcDbLine
 10
-860.521134070135
 20
228.0500226246461
 30
0.0
 11
-793.0793733880744
 21
229.7195575601645
 31
0.0
  0
ARC
  5
C59E
330
1F
100
AcDbEntity
  8
_0-0_
100
AcDbCircle
 10
-1017.796917249261
 20
149.089411059741
 30
0.0
 40
397.971605224
100
AcDbArc
 50
50.84715994681379
 51
55.62150792818989
  0
LINE
  5
C59F
330
1F
100
AcDbEntity
  8
_0-0_
100
AcDbLine
 10
-860.521134070135
 20
479.2150679439339
 30
0.0
 11
-793.0793733880737
 21
477.5455330084152
 31
0.0
  0
LINE
  5
C5A0
330
1F
100
AcDbEntity
  8
_0-0_
100
AcDbLine
 10
-766.5211340660355
 20
249.5628486831847
 30
0.0
 11
-766.5211340660355
 21
457.7022418853953
 31
0.0
  0
LINE
  5
C5A1
330
1F
100
AcDbEntity
  8
_0-0_
  6
CENTER2
100
AcDbLine
 10
-900.5211340701348
 20
211.4048224498069
 30
0.0
 11
-900.5211340701348
 21
498.3221156828899
 31
0.0
  0
ARC
  5
C5A2
330
1F
100
AcDbEntity
  8
_0-0_
100
AcDbCircle
 10
-880.4422192423906
 20
427.0589818039493
 30
0.0
 40
220.0
100
AcDbArc
 50
293.5709760392141
 51
322.6643090710152
  0
ARC
  5
C5A3
330
1F
100
AcDbEntity
  8
_0-0_
100
AcDbCircle
 10
-880.4422192423903
 20
280.2061087646304
 30
0.0
 40
220.0
100
AcDbArc
 50
37.33569092898476
 51
66.42902396078582
  0
LINE
  5
C5A4
330
1F
100
AcDbEntity
  8
_0-0_
100
AcDbLine
 10
-860.5211340706329
 20
483.6325452842897
 30
0.0
 11
-792.4675665124278
 21
481.8504999017079
 31
0.0
  0
LINE
  5
C5A5
330
1F
100
AcDbEntity
  8
_0-0_
100
AcDbLine
 10
-860.5211340706329
 20
223.6325452842903
 30
0.0
 11
-792.4675665124278
 21
225.4145906668725
 31
0.0
  0
LINE
  5
C5A6
330
1F
100
AcDbEntity
  8
_0-0_
100
AcDbLine
 10
-861.5211340706329
 20
483.6325452842897
 30
0.0
 11
-1048.252398694246
 21
478.7428150343408
 31
0.0
  0
ARC
  5
C5A7
330
1F
100
AcDbEntity
  8
_0-0_
100
AcDbCircle
 10
-1047.728859728088
 20
458.7496685348301
 30
0.0
 40
20.0
100
AcDbArc
 50
91.50000000000273
 51
176.9567675270099
  0
LINE
  5
C5A8
330
1F
100
AcDbEntity
  8
_0-0_
100
AcDbLine
 10
-861.5211340706329
 20
223.6325452842903
 30
0.0
 11
-1048.252398694246
 21
228.5222755342393
 31
0.0
  0
ARC
  5
C5A9
330
1F
100
AcDbEntity
  8
_0-0_
100
AcDbCircle
 10
929.4788659293676
 20
353.6325452842894
 30
0.0
 40
2000.0
100
AcDbArc
 50
176.9567675270099
 51
183.04323247299
  0
ARC
  5
C5AA
330
1F
100
AcDbEntity
  8
_0-0_
100
AcDbCircle
 10
-1047.728859728088
 20
248.5154220337502
 30
0.0
 40
20.0
100
AcDbArc
 50
183.04323247299
 51
268.4999999999972
  0
LINE
  5
C5AB
330
1F
100
AcDbEntity
  8
_0-0_
100
AcDbLine
 10
-861.5211340018758
 20
479.2150679439339
 30
0.0
 11
-1048.675330778423
 21
474.314262825799
 31
0.0
  0
ARC
  5
C5AC
330
1F
100
AcDbEntity
  8
_0-0_
100
AcDbCircle
 10
-1048.282676553805
 20
459.319402951166
 30
0.0
 40
15.0
100
AcDbArc
 50
91.50000000000273
 51
176.9411596295684
  0
LINE
  5
C5AD
330
1F
100
AcDbEntity
  8
_0-0_
100
AcDbLine
 10
-861.4571676553408
 20
228.0483476069126
 30
0.0
 11
-1048.675330778423
 21
232.9508277427806
 31
0.0
  0
ARC
  5
C5AE
330
1F
100
AcDbEntity
  8
_0-0_
100
AcDbCircle
 10
929.4788659293676
 20
353.6325452842898
 30
0.0
 40
1995.583356187999
100
AcDbArc
 50
176.9411596295684
 51
183.0588403704315
  0
ARC
  5
C5AF
330
1F
100
AcDbEntity
  8
_0-0_
100
AcDbCircle
 10
-1048.282676553805
 20
247.9456876174138
 30
0.0
 40
15.0
100
AcDbArc
 50
183.0588403704315
 51
268.4999999999972
  0
CIRCLE
  5
C5B0
330
1F
100
AcDbEntity
  8
_0-0_
100
AcDbCircle
 10
-900.5211340706329
 20
353.63254528429
 30
0.0
 40
12.37637617070004
  0
ARC
  5
C5B1
330
1F
100
AcDbEntity
  8
_0-0_
100
AcDbCircle
 10
-900.5211340701348
 20
353.63254528429
 30
0.0
 40
100.495885235884
100
AcDbArc
 50
144.2495410189912
 51
141.7504589810072
  0
CIRCLE
  5
C5B2
330
1F
100
AcDbEntity
  8
_0-0_
100
AcDbCircle
 10
-980.9159185107612
 20
414.2143607066648
 30
0.0
 40
2.2
  0
ARC
  5
C5B3
330
1F
100
AcDbEntity
  8
_0-0_
100
AcDbCircle
 10
-980.9159185107612
 20
414.2143607066648
 30
0.0
 40
5.967918278049219
100
AcDbArc
 50
49.67581540515153
 51
236.32418459485
  0
ARC
  5
C5B4
330
1F
100
AcDbEntity
  8
_0-0_
100
AcDbCircle
 10
-980.9159185107612
 20
414.2143607066648
 30
0.0
 40
2.827918278049219
100
AcDbArc
 50
48.76427475458363
 51
237.2357252454155
  0
ARC
  5
C5B5
330
1F
100
AcDbEntity
  8
_0-0_
100
AcDbCircle
 10
-787.5211340671722
 20
353.6332836473387
 30
0.0
 40
92.0
100
AcDbArc
 50
318.0496570926176
 51
41.9491063380462
  0
LINE
  5
C5B6
330
1F
100
AcDbEntity
  8
_0-0_
100
AcDbLine
 10
-702.2551657882015
 20
353.6325452839146
 30
0.0
 11
-702.2551657882015
 21
353.6325452839146
 31
0.0
  0
LINE
  5
C5B7
330
1F
100
AcDbEntity
  8
_0-0_
100
AcDbLine
 10
-702.2551657882015
 20
353.6325452839146
 30
0.0
 11
-702.7040373421473
 21
363.0095766374459
 31
0.0
  0
LINE
  5
C5B8
330
1F
100
AcDbEntity
  8
_0-0_
100
AcDbLine
 10
-702.7040373421473
 20
363.0095766374459
 30
0.0
 11
-704.0370132689581
 21
372.1016916383069
 31
0.0
  0
LINE
  5
C5B9
330
1F
100
AcDbEntity
  8
_0-0_
100
AcDbLine
 10
-704.0370132689581
 20
372.1016916383069
 30
0.0
 11
-706.2135917696162
 21
380.6326309730289
 31
0.0
  0
LINE
  5
C5BA
330
1F
100
AcDbEntity
  8
_0-0_
100
AcDbLine
 10
-706.2135917696162
 20
380.6326309730289
 30
0.0
 11
-709.1676386077808
 21
388.34318636679
 31
0.0
  0
LINE
  5
C5BB
330
1F
100
AcDbEntity
  8
_0-0_
100
AcDbLine
 10
-709.1676386077808
 20
388.34318636679
 30
0.0
 11
-712.809396565094
 21
394.9990764956792
 31
0.0
  0
LINE
  5
C5BC
330
1F
100
AcDbEntity
  8
_0-0_
100
AcDbLine
 10
-712.809396565094
 20
394.9990764956792
 30
0.0
 11
-717.0282126688416
 21
400.3980655061741
 31
0.0
  0
LINE
  5
C5BD
330
1F
100
AcDbEntity
  8
_0-0_
100
AcDbLine
 10
-717.0282126688416
 20
400.3980655061741
 30
0.0
 11
-721.6959003265352
 21
404.3761078492106
 31
0.0
  0
LINE
  5
C5BE
330
1F
100
AcDbEntity
  8
_0-0_
100
AcDbLine
 10
-721.6959003265352
 20
404.3761078492106
 30
0.0
 11
-726.6706342106593
 21
406.8123327211822
 31
0.0
  0
LINE
  5
C5BF
330
1F
100
AcDbEntity
  8
_0-0_
100
AcDbLine
 10
-726.6706342106593
 20
406.8123327211822
 30
0.0
 11
-731.801259549482
 21
407.6327166621434
 31
0.0
  0
LINE
  5
C5C0
330
1F
100
AcDbEntity
  8
_0-0_
100
AcDbLine
 10
-731.801259549482
 20
407.6327166621434
 30
0.0
 11
-736.9318848883047
 21
406.8123327211822
 31
0.0
  0
LINE
  5
C5C1
330
1F
100
AcDbEntity
  8
_0-0_
100
AcDbLine
 10
-736.9318848883047
 20
406.8123327211822
 30
0.0
 11
-741.9066187724288
 21
404.3761078492106
 31
0.0
  0
LINE
  5
C5C2
330
1F
100
AcDbEntity
  8
_0-0_
100
AcDbLine
 10
-741.9066187724288
 20
404.3761078492106
 30
0.0
 11
-746.5743064301222
 21
400.3980655061741
 31
0.0
  0
LINE
  5
C5C3
330
1F
100
AcDbEntity
  8
_0-0_
100
AcDbLine
 10
-746.5743064301222
 20
400.3980655061741
 30
0.0
 11
-750.7931225338697
 21
394.9990764956792
 31
0.0
  0
LINE
  5
C5C4
330
1F
100
AcDbEntity
  8
_0-0_
100
AcDbLine
 10
-750.7931225338697
 20
394.9990764956792
 30
0.0
 11
-754.4348804911832
 21
388.34318636679
 31
0.0
  0
LINE
  5
C5C5
330
1F
100
AcDbEntity
  8
_0-0_
100
AcDbLine
 10
-754.4348804911832
 20
388.34318636679
 30
0.0
 11
-757.3889273293478
 21
380.6326309730289
 31
0.0
  0
LINE
  5
C5C6
330
1F
100
AcDbEntity
  8
_0-0_
100
AcDbLine
 10
-757.3889273293478
 20
380.6326309730289
 30
0.0
 11
-759.5655058300057
 21
372.1016916383069
 31
0.0
  0
LINE
  5
C5C7
330
1F
100
AcDbEntity
  8
_0-0_
100
AcDbLine
 10
-759.5655058300057
 20
372.1016916383069
 30
0.0
 11
-760.8984817568166
 21
363.0095766374461
 31
0.0
  0
LINE
  5
C5C8
330
1F
100
AcDbEntity
  8
_0-0_
100
AcDbLine
 10
-760.8984817568166
 20
363.0095766374461
 30
0.0
 11
-761.3473533107623
 21
353.6325452839146
 31
0.0
  0
LINE
  5
C5C9
330
1F
100
AcDbEntity
  8
_0-0_
100
AcDbLine
 10
-761.3473533107623
 20
353.6325452839146
 30
0.0
 11
-760.8984817568166
 21
344.2555139303834
 31
0.0
  0
LINE
  5
C5CA
330
1F
100
AcDbEntity
  8
_0-0_
100
AcDbLine
 10
-760.8984817568166
 20
344.2555139303834
 30
0.0
 11
-759.5655058300057
 21
335.1633989295221
 31
0.0
  0
LINE
  5
C5CB
330
1F
100
AcDbEntity
  8
_0-0_
100
AcDbLine
 10
-759.5655058300057
 20
335.1633989295221
 30
0.0
 11
-757.3889273293478
 21
326.6324595948004
 31
0.0
  0
LINE
  5
C5CC
330
1F
100
AcDbEntity
  8
_0-0_
100
AcDbLine
 10
-757.3889273293478
 20
326.6324595948004
 30
0.0
 11
-754.4348804911832
 21
318.9219042010395
 31
0.0
  0
LINE
  5
C5CD
330
1F
100
AcDbEntity
  8
_0-0_
100
AcDbLine
 10
-754.4348804911832
 20
318.9219042010395
 30
0.0
 11
-750.7931225338698
 21
312.26601407215
 31
0.0
  0
LINE
  5
C5CE
330
1F
100
AcDbEntity
  8
_0-0_
100
AcDbLine
 10
-750.7931225338698
 20
312.26601407215
 30
0.0
 11
-746.5743064301222
 21
306.8670250616549
 31
0.0
  0
LINE
  5
C5CF
330
1F
100
AcDbEntity
  8
_0-0_
100
AcDbLine
 10
-746.5743064301222
 20
306.8670250616549
 30
0.0
 11
-741.9066187724288
 21
302.8889827186185
 31
0.0
  0
LINE
  5
C5D0
330
1F
100
AcDbEntity
  8
_0-0_
100
AcDbLine
 10
-741.9066187724288
 20
302.8889827186185
 30
0.0
 11
-736.9318848883047
 21
300.4527578466471
 31
0.0
  0
LINE
  5
C5D1
330
1F
100
AcDbEntity
  8
_0-0_
100
AcDbLine
 10
-736.9318848883047
 20
300.4527578466471
 30
0.0
 11
-731.8012595494821
 21
299.6323739056856
 31
0.0
  0
LINE
  5
C5D2
330
1F
100
AcDbEntity
  8
_0-0_
100
AcDbLine
 10
-731.8012595494821
 20
299.6323739056856
 30
0.0
 11
-726.6706342106596
 21
300.4527578466468
 31
0.0
  0
LINE
  5
C5D3
330
1F
100
AcDbEntity
  8
_0-0_
100
AcDbLine
 10
-726.6706342106596
 20
300.4527578466468
 30
0.0
 11
-721.6959003265353
 21
302.8889827186185
 31
0.0
  0
LINE
  5
C5D4
330
1F
100
AcDbEntity
  8
_0-0_
100
AcDbLine
 10
-721.6959003265353
 20
302.8889827186185
 30
0.0
 11
-717.0282126688418
 21
306.8670250616549
 31
0.0
  0
LINE
  5
C5D5
330
1F
100
AcDbEntity
  8
_0-0_
100
AcDbLine
 10
-717.0282126688418
 20
306.8670250616549
 30
0.0
 11
-712.8093965650942
 21
312.2660140721498
 31
0.0
  0
LINE
  5
C5D6
330
1F
100
AcDbEntity
  8
_0-0_
100
AcDbLine
 10
-712.8093965650942
 20
312.2660140721498
 30
0.0
 11
-709.1676386077808
 21
318.9219042010395
 31
0.0
  0
LINE
  5
C5D7
330
1F
100
AcDbEntity
  8
_0-0_
100
AcDbLine
 10
-709.1676386077808
 20
318.9219042010395
 30
0.0
 11
-706.2135917696162
 21
326.6324595947997
 31
0.0
  0
LINE
  5
C5D8
330
1F
100
AcDbEntity
  8
_0-0_
100
AcDbLine
 10
-706.2135917696162
 20
326.6324595947997
 30
0.0
 11
-704.0370132689581
 21
335.1633989295217
 31
0.0
  0
LINE
  5
C5D9
330
1F
100
AcDbEntity
  8
_0-0_
100
AcDbLine
 10
-704.0370132689581
 20
335.1633989295217
 30
0.0
 11
-702.7040373421473
 21
344.2555139303829
 31
0.0
  0
LINE
  5
C5DA
330
1F
100
AcDbEntity
  8
_0-0_
100
AcDbLine
 10
-702.7040373421473
 20
344.2555139303829
 30
0.0
 11
-702.2551657882015
 21
353.6325452839144
 31
0.0
  0
LINE
  5
C5DB
330
1F
100
AcDbEntity
  8
_0-0_
100
AcDbLine
 10
-702.2551657882015
 20
353.6325452839144
 30
0.0
 11
-702.2551657882015
 21
353.6325452839144
 31
0.0
  0
LINE
  5
C5DC
330
1F
100
AcDbEntity
  8
_0-0_
100
AcDbLine
 10
-706.235667806121
 20
353.63254528429
 30
0.0
 11
-706.235667806121
 21
353.63254528429
 31
0.0
  0
LINE
  5
C5DD
330
1F
100
AcDbEntity
  8
_0-0_
100
AcDbLine
 10
-706.235667806121
 20
353.63254528429
 30
0.0
 11
-706.6541737578532
 21
362.5570693837606
 31
0.0
  0
LINE
  5
C5DE
330
1F
100
AcDbEntity
  8
_0-0_
100
AcDbLine
 10
-706.6541737578532
 20
362.5570693837606
 30
0.0
 11
-707.8969755214806
 21
371.2104263344959
 31
0.0
  0
LINE
  5
C5DF
330
1F
100
AcDbEntity
  8
_0-0_
100
AcDbLine
 10
-707.8969755214806
 20
371.2104263344959
 30
0.0
 11
-709.9263111943038
 21
379.3296882643578
 31
0.0
  0
LINE
  5
C5E0
330
1F
100
AcDbEntity
  8
_0-0_
100
AcDbLine
 10
-709.9263111943038
 20
379.3296882643578
 30
0.0
 11
-712.680520438797
 21
386.6681555081521
 31
0.0
  0
LINE
  5
C5E1
330
1F
100
AcDbEntity
  8
_0-0_
100
AcDbLine
 10
-712.680520438797
 20
386.6681555081521
 30
0.0
 11
-716.0759180007635
 21
393.0028524521194
 31
0.0
  0
LINE
  5
C5E2
330
1F
100
AcDbEntity
  8
_0-0_
100
AcDbLine
 10
-716.0759180007635
 20
393.0028524521194
 30
0.0
 11
-720.0093364434373
 21
398.1413025351294
 31
0.0
  0
LINE
  5
C5E3
330
1F
100
AcDbEntity
  8
_0-0_
100
AcDbLine
 10
-720.0093364434373
 20
398.1413025351294
 30
0.0
 11
-724.3612608378432
 21
401.9273765515902
 31
0.0
  0
LINE
  5
C5E4
330
1F
100
AcDbEntity
  8
_0-0_
100
AcDbLine
 10
-724.3612608378432
 20
401.9273765515902
 30
0.0
 11
-728.9994601634376
 21
404.2460365583578
 31
0.0
  0
LINE
  5
C5E5
330
1F
100
AcDbEntity
  8
_0-0_
100
AcDbLine
 10
-728.9994601634376
 20
404.2460365583578
 30
0.0
 11
-733.7830050807537
 21
405.0268312444252
 31
0.0
  0
LINE
  5
C5E6
330
1F
100
AcDbEntity
  8
_0-0_
100
AcDbLine
 10
-733.7830050807537
 20
405.0268312444252
 30
0.0
 11
-738.5665499980697
 21
404.2460365583578
 31
0.0
  0
LINE
  5
C5E7
330
1F
100
AcDbEntity
  8
_0-0_
100
AcDbLine
 10
-738.5665499980697
 20
404.2460365583578
 30
0.0
 11
-743.2047493236638
 21
401.9273765515902
 31
0.0
  0
LINE
  5
C5E8
330
1F
100
AcDbEntity
  8
_0-0_
100
AcDbLine
 10
-743.2047493236638
 20
401.9273765515902
 30
0.0
 11
-747.55667371807
 21
398.1413025351294
 31
0.0
  0
LINE
  5
C5E9
330
1F
100
AcDbEntity
  8
_0-0_
100
AcDbLine
 10
-747.55667371807
 20
398.1413025351294
 30
0.0
 11
-751.4900921607437
 21
393.0028524521199
 31
0.0
  0
LINE
  5
C5EA
330
1F
100
AcDbEntity
  8
_0-0_
100
AcDbLine
 10
-751.4900921607437
 20
393.0028524521199
 30
0.0
 11
-754.8854897227101
 21
386.6681555081521
 31
0.0
  0
LINE
  5
C5EB
330
1F
100
AcDbEntity
  8
_0-0_
100
AcDbLine
 10
-754.8854897227101
 20
386.6681555081521
 30
0.0
 11
-757.6396989672034
 21
379.3296882643578
 31
0.0
  0
LINE
  5
C5EC
330
1F
100
AcDbEntity
  8
_0-0_
100
AcDbLine
 10
-757.6396989672034
 20
379.3296882643578
 30
0.0
 11
-759.6690346400266
 21
371.2104263344961
 31
0.0
  0
LINE
  5
C5ED
330
1F
100
AcDbEntity
  8
_0-0_
100
AcDbLine
 10
-759.6690346400266
 20
371.2104263344961
 30
0.0
 11
-760.911836403654
 21
362.5570693837608
 31
0.0
  0
LINE
  5
C5EE
330
1F
100
AcDbEntity
  8
_0-0_
100
AcDbLine
 10
-760.911836403654
 20
362.5570693837608
 30
0.0
 11
-761.3303423553863
 21
353.63254528429
 31
0.0
  0
LINE
  5
C5EF
330
1F
100
AcDbEntity
  8
_0-0_
100
AcDbLine
 10
-761.3303423553863
 20
353.63254528429
 30
0.0
 11
-760.911836403654
 21
344.7080211848192
 31
0.0
  0
LINE
  5
C5F0
330
1F
100
AcDbEntity
  8
_0-0_
100
AcDbLine
 10
-760.911836403654
 20
344.7080211848192
 30
0.0
 11
-759.6690346400266
 21
336.0546642340842
 31
0.0
  0
LINE
  5
C5F1
330
1F
100
AcDbEntity
  8
_0-0_
100
AcDbLine
 10
-759.6690346400266
 20
336.0546642340842
 30
0.0
 11
-757.6396989672034
 21
327.9354023042224
 31
0.0
  0
LINE
  5
C5F2
330
1F
100
AcDbEntity
  8
_0-0_
100
AcDbLine
 10
-757.6396989672034
 20
327.9354023042224
 30
0.0
 11
-754.8854897227101
 21
320.5969350604282
 31
0.0
  0
LINE
  5
C5F3
330
1F
100
AcDbEntity
  8
_0-0_
100
AcDbLine
 10
-754.8854897227101
 20
320.5969350604282
 30
0.0
 11
-751.4900921607437
 21
314.2622381164606
 31
0.0
  0
LINE
  5
C5F4
330
1F
100
AcDbEntity
  8
_0-0_
100
AcDbLine
 10
-751.4900921607437
 20
314.2622381164606
 30
0.0
 11
-747.55667371807
 21
309.1237880334511
 31
0.0
  0
LINE
  5
C5F5
330
1F
100
AcDbEntity
  8
_0-0_
100
AcDbLine
 10
-747.55667371807
 20
309.1237880334511
 30
0.0
 11
-743.204749323664
 21
305.3377140169898
 31
0.0
  0
LINE
  5
C5F6
330
1F
100
AcDbEntity
  8
_0-0_
100
AcDbLine
 10
-743.204749323664
 20
305.3377140169898
 30
0.0
 11
-738.5665499980699
 21
303.0190540102221
 31
0.0
  0
LINE
  5
C5F7
330
1F
100
AcDbEntity
  8
_0-0_
100
AcDbLine
 10
-738.5665499980699
 20
303.0190540102221
 30
0.0
 11
-733.7830050807537
 21
302.2382593241546
 31
0.0
  0
LINE
  5
C5F8
330
1F
100
AcDbEntity
  8
_0-0_
100
AcDbLine
 10
-733.7830050807537
 20
302.2382593241546
 30
0.0
 11
-728.9994601634376
 21
303.0190540102221
 31
0.0
  0
LINE
  5
C5F9
330
1F
100
AcDbEntity
  8
_0-0_
100
AcDbLine
 10
-728.9994601634376
 20
303.0190540102221
 30
0.0
 11
-724.3612608378432
 21
305.3377140169898
 31
0.0
  0
LINE
  5
C5FA
330
1F
100
AcDbEntity
  8
_0-0_
100
AcDbLine
 10
-724.3612608378432
 20
305.3377140169898
 30
0.0
 11
-720.0093364434373
 21
309.1237880334507
 31
0.0
  0
LINE
  5
C5FB
330
1F
100
AcDbEntity
  8
_0-0_
100
AcDbLine
 10
-720.0093364434373
 20
309.1237880334507
 30
0.0
 11
-716.0759180007637
 21
314.2622381164604
 31
0.0
  0
LINE
  5
C5FC
330
1F
100
AcDbEntity
  8
_0-0_
100
AcDbLine
 10
-716.0759180007637
 20
314.2622381164604
 30
0.0
 11
-712.680520438797
 21
320.5969350604278
 31
0.0
  0
LINE
  5
C5FD
330
1F
100
AcDbEntity
  8
_0-0_
100
AcDbLine
 10
-712.680520438797
 20
320.5969350604278
 30
0.0
 11
-709.9263111943038
 21
327.9354023042222
 31
0.0
  0
LINE
  5
C5FE
330
1F
100
AcDbEntity
  8
_0-0_
100
AcDbLine
 10
-709.9263111943038
 20
327.9354023042222
 30
0.0
 11
-707.8969755214806
 21
336.0546642340837
 31
0.0
  0
LINE
  5
C5FF
330
1F
100
AcDbEntity
  8
_0-0_
100
AcDbLine
 10
-707.8969755214806
 20
336.0546642340837
 30
0.0
 11
-706.6541737578532
 21
344.7080211848192
 31
0.0
  0
LINE
  5
C600
330
1F
100
AcDbEntity
  8
_0-0_
100
AcDbLine
 10
-706.6541737578532
 20
344.7080211848192
 30
0.0
 11
-706.235667806121
 21
353.6325452842898
 31
0.0
  0
LINE
  5
C601
330
1F
100
AcDbEntity
  8
_0-0_
100
AcDbLine
 10
-706.235667806121
 20
353.6325452842898
 30
0.0
 11
-706.235667806121
 21
353.6325452842898
 31
0.0
  0
ARC
  5
C602
330
1F
100
AcDbEntity
  8
_0-0_
100
AcDbCircle
 10
-785.521134070633
 20
353.6325452842898
 30
0.0
 40
100.0
100
AcDbArc
 50
323.1301023541534
 51
352.5304076835834
  0
ARC
  5
C603
330
1F
100
AcDbEntity
  8
_0-0_
100
AcDbCircle
 10
-785.521134070633
 20
353.6325452842898
 30
0.0
 40
100.0
100
AcDbArc
 50
7.469592316416581
 51
36.86989764584663
  0
LINE
  5
C604
330
1F
100
AcDbEntity
  8
_0-0_
100
AcDbLine
 10
-677.9411340701346
 20
361.9725452842899
 30
0.0
 11
-677.9411340701346
 21
345.2925452842896
 31
0.0
  0
LINE
  5
C605
330
1F
100
AcDbEntity
  8
_0-0_
100
AcDbLine
 10
-670.0611340701348
 20
359.6225452842889
 30
0.0
 11
-670.0611340701348
 21
347.6425452842907
 31
0.0
  0
LINE
  5
C606
330
1F
100
AcDbEntity
  8
_0-0_
100
AcDbLine
 10
-667.0770369001324
 20
366.6325452842898
 30
0.0
 11
-657.009900629877
 21
363.6216020551294
 31
0.0
  0
LINE
  5
C607
330
1F
100
AcDbEntity
  8
_0-0_
100
AcDbLine
 10
-667.0770369001319
 20
366.6325452842898
 30
0.0
 11
-667.0770369001319
 21
362.6325452842898
 31
0.0
  0
LINE
  5
C608
330
1F
100
AcDbEntity
  8
_0-0_
100
AcDbLine
 10
-667.0770369001324
 20
340.6325452842898
 30
0.0
 11
-657.009900629877
 21
343.6434885134504
 31
0.0
  0
LINE
  5
C609
330
1F
100
AcDbEntity
  8
_0-0_
100
AcDbLine
 10
-657.3033359898809
 20
347.6426128970338
 30
0.0
 11
-670.0611340701352
 21
347.6425452842907
 31
0.0
  0
LINE
  5
C60A
330
1F
100
AcDbEntity
  8
_0-0_
100
AcDbLine
 10
-667.0770369001319
 20
340.6325452842903
 30
0.0
 11
-667.0770369001319
 21
344.6325452842898
 31
0.0
  0
LINE
  5
C60B
330
1F
100
AcDbEntity
  8
_0-0_
100
AcDbLine
 10
-677.9351137874677
 20
345.2925452842896
 30
0.0
 11
-670.0611340701352
 21
347.6425452842907
 31
0.0
  0
LINE
  5
C60C
330
1F
100
AcDbEntity
  8
_0-0_
100
AcDbLine
 10
-657.009900629877
 20
343.6469897359903
 30
0.0
 11
-657.009900629877
 21
343.6469897359903
 31
0.0
  0
LINE
  5
C60D
330
1F
100
AcDbEntity
  8
_0-0_
100
AcDbLine
 10
-657.009900629877
 20
343.6469897359903
 30
0.0
 11
-656.9336387618589
 21
343.8321830096977
 31
0.0
  0
LINE
  5
C60E
330
1F
100
AcDbEntity
  8
_0-0_
100
AcDbLine
 10
-656.9336387618589
 20
343.8321830096977
 30
0.0
 11
-656.859952238434
 21
344.315155331896
 31
0.0
  0
LINE
  5
C60F
330
1F
100
AcDbEntity
  8
_0-0_
100
AcDbLine
 10
-656.859952238434
 20
344.315155331896
 30
0.0
 11
-656.7910799873295
 21
345.0812318329711
 31
0.0
  0
LINE
  5
C610
330
1F
100
AcDbEntity
  8
_0-0_
100
AcDbLine
 10
-656.7910799873295
 20
345.0812318329711
 30
0.0
 11
-656.7291146570441
 21
346.1071356660907
 31
0.0
  0
LINE
  5
C611
330
1F
100
AcDbEntity
  8
_0-0_
100
AcDbLine
 10
-656.7291146570441
 20
346.1071356660907
 30
0.0
 11
-656.6759390327828
 21
347.3616952624186
 31
0.0
  0
LINE
  5
C612
330
1F
100
AcDbEntity
  8
_0-0_
100
AcDbLine
 10
-656.6759390327828
 20
347.3616952624186
 30
0.0
 11
-656.6331688289802
 21
348.8067914634578
 31
0.0
  0
LINE
  5
C613
330
1F
100
AcDbEntity
  8
_0-0_
100
AcDbLine
 10
-656.6331688289802
 20
348.8067914634578
 30
0.0
 11
-656.6021035966365
 21
350.3985157523939
 31
0.0
  0
LINE
  5
C614
330
1F
100
AcDbEntity
  8
_0-0_
100
AcDbLine
 10
-656.6021035966365
 20
350.3985157523939
 30
0.0
 11
-656.5836872371168
 21
352.0885043921583
 31
0.0
  0
LINE
  5
C615
330
1F
100
AcDbEntity
  8
_0-0_
100
AcDbLine
 10
-656.5836872371168
 20
352.0885043921583
 30
0.0
 11
-656.5784793221854
 21
353.825407933108
 31
0.0
  0
LINE
  5
C616
330
1F
100
AcDbEntity
  8
_0-0_
100
AcDbLine
 10
-656.5784793221854
 20
353.825407933108
 30
0.0
 11
-656.5866380917027
 21
355.5564514400667
 31
0.0
  0
LINE
  5
C617
330
1F
100
AcDbEntity
  8
_0-0_
100
AcDbLine
 10
-656.5866380917027
 20
355.5564514400667
 30
0.0
 11
-656.6079156455851
 21
357.2290380320255
 31
0.0
  0
LINE
  5
C618
330
1F
100
AcDbEntity
  8
_0-0_
100
AcDbLine
 10
-656.6079156455851
 20
357.2290380320255
 30
0.0
 11
-656.6416654761249
 21
358.7923470117573
 31
0.0
  0
LINE
  5
C619
330
1F
100
AcDbEntity
  8
_0-0_
100
AcDbLine
 10
-656.6416654761249
 20
358.7923470117573
 30
0.0
 11
-656.6868621117996
 21
360.198878026986
 31
0.0
  0
LINE
  5
C61A
330
1F
100
AcDbEntity
  8
_0-0_
100
AcDbLine
 10
-656.6868621117996
 20
360.198878026986
 30
0.0
 11
-656.7421322757045
 21
361.4058943445521
 31
0.0
  0
LINE
  5
C61B
330
1F
100
AcDbEntity
  8
_0-0_
100
AcDbLine
 10
-656.7421322757045
 20
361.4058943445521
 30
0.0
 11
-656.805796611878
 21
362.3767213844269
 31
0.0
  0
LINE
  5
C61C
330
1F
100
AcDbEntity
  8
_0-0_
100
AcDbLine
 10
-656.805796611878
 20
362.3767213844269
 30
0.0
 11
-656.8759207116803
 21
363.0818610582653
 31
0.0
  0
LINE
  5
C61D
330
1F
100
AcDbEntity
  8
_0-0_
100
AcDbLine
 10
-656.8759207116803
 20
363.0818610582653
 30
0.0
 11
-656.9503738898241
 21
363.4998880538967
 31
0.0
  0
LINE
  5
C61E
330
1F
100
AcDbEntity
  8
_0-0_
100
AcDbLine
 10
-656.9503738898241
 20
363.4998880538967
 30
0.0
 11
-657.009900629877
 21
363.6181008325889
 31
0.0
  0
LINE
  5
C61F
330
1F
100
AcDbEntity
  8
_0-0_
100
AcDbLine
 10
-666.9242549441159
 20
344.6325452842898
 30
0.0
 11
-657.3033359898809
 21
347.6426128970338
 31
0.0
  0
LINE
  5
C620
330
1F
100
AcDbEntity
  8
_0-0_
100
AcDbLine
 10
-666.9242549441158
 20
362.6325452842898
 30
0.0
 11
-657.3033359898804
 21
359.6224776715458
 31
0.0
  0
LINE
  5
C621
330
1F
100
AcDbEntity
  8
_0-0_
100
AcDbLine
 10
-677.9351137874677
 20
361.9725452842899
 30
0.0
 11
-670.0611340701352
 21
359.6225452842889
 31
0.0
  0
LINE
  5
C622
330
1F
100
AcDbEntity
  8
_0-0_
100
AcDbLine
 10
-657.3033359898804
 20
359.6224776715458
 30
0.0
 11
-670.0611340701352
 21
359.6225452842889
 31
0.0
  0
LINE
  5
C623
330
1F
100
AcDbEntity
  8
_0-0_
100
AcDbLine
 10
-669.3127048748352
 20
359.2104699517047
 30
0.0
 11
-669.3127048748352
 21
359.2104699517047
 31
0.0
  0
LINE
  5
C624
330
1F
100
AcDbEntity
  8
_0-0_
100
AcDbLine
 10
-669.3127048748352
 20
359.2104699517047
 30
0.0
 11
-669.4966138308448
 21
358.7466003892103
 31
0.0
  0
LINE
  5
C625
330
1F
100
AcDbEntity
  8
_0-0_
100
AcDbLine
 10
-669.4966138308448
 20
358.7466003892103
 30
0.0
 11
-669.6618933324185
 21
358.1273428501843
 31
0.0
  0
LINE
  5
C626
330
1F
100
AcDbEntity
  8
_0-0_
100
AcDbLine
 10
-669.6618933324185
 20
358.1273428501843
 30
0.0
 11
-669.8035214455366
 21
357.3715131615907
 31
0.0
  0
LINE
  5
C627
330
1F
100
AcDbEntity
  8
_0-0_
100
AcDbLine
 10
-669.8035214455366
 20
357.3715131615907
 30
0.0
 11
-669.9171948716496
 21
356.5020768260492
 31
0.0
  0
LINE
  5
C628
330
1F
100
AcDbEntity
  8
_0-0_
100
AcDbLine
 10
-669.9171948716496
 20
356.5020768260492
 30
0.0
 11
-669.999459701226
 21
355.5454512266599
 31
0.0
  0
LINE
  5
C629
330
1F
100
AcDbEntity
  8
_0-0_
100
AcDbLine
 10
-669.999459701226
 20
355.5454512266599
 30
0.0
 11
-670.0478163590473
 21
354.5307029481828
 31
0.0
  0
LINE
  5
C62A
330
1F
100
AcDbEntity
  8
_0-0_
100
AcDbLine
 10
-670.0478163590473
 20
354.5307029481828
 30
0.0
 11
-670.0607955525352
 21
353.4886646035734
 31
0.0
  0
LINE
  5
C62B
330
1F
100
AcDbEntity
  8
_0-0_
100
AcDbLine
 10
-670.0607955525352
 20
353.4886646035734
 30
0.0
 11
-670.0380029154638
 21
352.4509980006353
 31
0.0
  0
LINE
  5
C62C
330
1F
100
AcDbEntity
  8
_0-0_
100
AcDbLine
 10
-670.0380029154638
 20
352.4509980006353
 30
0.0
 11
-669.9801309905764
 21
351.4492321140142
 31
0.0
  0
LINE
  5
C62D
330
1F
100
AcDbEntity
  8
_0-0_
100
AcDbLine
 10
-669.9801309905764
 20
351.4492321140142
 30
0.0
 11
-669.8889381870262
 21
350.5138050932569
 31
0.0
  0
LINE
  5
C62E
330
1F
100
AcDbEntity
  8
_0-0_
100
AcDbLine
 10
-669.8889381870262
 20
350.5138050932569
 30
0.0
 11
-669.7671953520035
 21
349.6731394150402
 31
0.0
  0
LINE
  5
C62F
330
1F
100
AcDbEntity
  8
_0-0_
100
AcDbLine
 10
-669.7671953520035
 20
349.6731394150402
 30
0.0
 11
-669.6186015799455
 21
348.9527782805999
 31
0.0
  0
LINE
  5
C630
330
1F
100
AcDbEntity
  8
_0-0_
100
AcDbLine
 10
-669.6186015799455
 20
348.9527782805999
 30
0.0
 11
-669.4476718174239
 21
348.3746094984849
 31
0.0
  0
LINE
  5
C631
330
1F
100
AcDbEntity
  8
_0-0_
100
AcDbLine
 10
-669.4476718174239
 20
348.3746094984849
 30
0.0
 11
-669.3127617126377
 21
348.0546206168749
 31
0.0
  0
LINE
  5
C632
330
1F
100
AcDbEntity
  8
_0-0_
100
AcDbLine
 10
-676.8808072642267
 20
361.2136408659296
 30
0.0
 11
-676.8808072642267
 21
361.2136408659296
 31
0.0
  0
LINE
  5
C633
330
1F
100
AcDbEntity
  8
_0-0_
100
AcDbLine
 10
-676.8808072642267
 20
361.2136408659296
 30
0.0
 11
-677.1562732943388
 21
360.4948655795949
 31
0.0
  0
LINE
  5
C634
330
1F
100
AcDbEntity
  8
_0-0_
100
AcDbLine
 10
-677.1562732943388
 20
360.4948655795949
 30
0.0
 11
-677.4003455558348
 21
359.5675821635889
 31
0.0
  0
LINE
  5
C635
330
1F
100
AcDbEntity
  8
_0-0_
100
AcDbLine
 10
-677.4003455558348
 20
359.5675821635889
 30
0.0
 11
-677.605608036556
 21
358.4599656552793
 31
0.0
  0
LINE
  5
C636
330
1F
100
AcDbEntity
  8
_0-0_
100
AcDbLine
 10
-677.605608036556
 20
358.4599656552793
 30
0.0
 11
-677.7658239398931
 21
357.2056704217896
 31
0.0
  0
LINE
  5
C637
330
1F
100
AcDbEntity
  8
_0-0_
100
AcDbLine
 10
-677.7658239398931
 20
357.2056704217896
 30
0.0
 11
-677.8761251866967
 21
355.8428075890856
 31
0.0
  0
LINE
  5
C638
330
1F
100
AcDbEntity
  8
_0-0_
100
AcDbLine
 10
-677.8761251866967
 20
355.8428075890856
 30
0.0
 11
-677.9331603293976
 21
354.412787054697
 31
0.0
  0
LINE
  5
C639
330
1F
100
AcDbEntity
  8
_0-0_
100
AcDbLine
 10
-677.9331603293976
 20
354.412787054697
 30
0.0
 11
-677.935196384046
 21
352.959059268936
 31
0.0
  0
LINE
  5
C63A
330
1F
100
AcDbEntity
  8
_0-0_
100
AcDbLine
 10
-677.935196384046
 20
352.959059268936
 30
0.0
 11
-677.8821714861518
 21
351.5257950149512
 31
0.0
  0
LINE
  5
C63B
330
1F
100
AcDbEntity
  8
_0-0_
100
AcDbLine
 10
-677.8821714861518
 20
351.5257950149512
 30
0.0
 11
-677.7756967704056
 21
350.1565433018332
 31
0.0
  0
LINE
  5
C63C
330
1F
100
AcDbEntity
  8
_0-0_
100
AcDbLine
 10
-677.7756967704056
 20
350.1565433018332
 30
0.0
 11
-677.6190074171666
 21
348.8929081500101
 31
0.0
  0
LINE
  5
C63D
330
1F
100
AcDbEntity
  8
_0-0_
100
AcDbLine
 10
-677.6190074171666
 20
348.8929081500101
 30
0.0
 11
-677.4168643531443
 21
347.7732844741402
 31
0.0
  0
LINE
  5
C63E
330
1F
100
AcDbEntity
  8
_0-0_
100
AcDbLine
 10
-677.4168643531443
 20
347.7732844741402
 30
0.0
 11
-677.1754095930495
 21
346.8316914730576
 31
0.0
  0
LINE
  5
C63F
330
1F
100
AcDbEntity
  8
_0-0_
100
AcDbLine
 10
-677.1754095930495
 20
346.8316914730576
 30
0.0
 11
-676.9019796175858
 21
346.0967389736309
 31
0.0
  0
LINE
  5
C640
330
1F
100
AcDbEntity
  8
_0-0_
100
AcDbLine
 10
-676.9019796175858
 20
346.0967389736309
 30
0.0
 11
-676.8808072642262
 21
346.0514497026502
 31
0.0
  0
LINE
  5
C641
330
1F
100
AcDbEntity
  8
_0-0_
100
AcDbLine
 10
-657.3912548332688
 20
347.6948121528417
 30
0.0
 11
-657.3912548332688
 21
347.6948121528417
 31
0.0
  0
LINE
  5
C642
330
1F
100
AcDbEntity
  8
_0-0_
100
AcDbLine
 10
-657.3912548332688
 20
347.6948121528417
 30
0.0
 11
-657.3292315786456
 21
347.7364641856298
 31
0.0
  0
LINE
  5
C643
330
1F
100
AcDbEntity
  8
_0-0_
100
AcDbLine
 10
-657.3292315786456
 20
347.7364641856298
 30
0.0
 11
-657.2685838923998
 21
347.9572656590396
 31
0.0
  0
LINE
  5
C644
330
1F
100
AcDbEntity
  8
_0-0_
100
AcDbLine
 10
-657.2685838923998
 20
347.9572656590396
 30
0.0
 11
-657.2111545237889
 21
348.3505076320327
 31
0.0
  0
LINE
  5
C645
330
1F
100
AcDbEntity
  8
_0-0_
100
AcDbLine
 10
-657.2111545237889
 20
348.3505076320327
 30
0.0
 11
-657.1586884351177
 21
348.9042416462496
 31
0.0
  0
LINE
  5
C646
330
1F
100
AcDbEntity
  8
_0-0_
100
AcDbLine
 10
-657.1586884351177
 20
348.9042416462496
 30
0.0
 11
-657.1127797819412
 21
349.6016427738714
 31
0.0
  0
LINE
  5
C647
330
1F
100
AcDbEntity
  8
_0-0_
100
AcDbLine
 10
-657.1127797819412
 20
349.6016427738714
 30
0.0
 11
-657.0748234754555
 21
350.421520834537
 31
0.0
  0
LINE
  5
C648
330
1F
100
AcDbEntity
  8
_0-0_
100
AcDbLine
 10
-657.0748234754555
 20
350.421520834537
 30
0.0
 11
-657.0459727988257
 21
351.3389642482516
 31
0.0
  0
LINE
  5
C649
330
1F
100
AcDbEntity
  8
_0-0_
100
AcDbLine
 10
-657.0459727988257
 20
351.3389642482516
 30
0.0
 11
-657.0271043652629
 21
352.3260969611381
 31
0.0
  0
LINE
  5
C64A
330
1F
100
AcDbEntity
  8
_0-0_
100
AcDbLine
 10
-657.0271043652629
 20
352.3260969611381
 30
0.0
 11
-657.0187914825725
 21
353.3529254452292
 31
0.0
  0
LINE
  5
C64B
330
1F
100
AcDbEntity
  8
_0-0_
100
AcDbLine
 10
-657.0187914825725
 20
353.3529254452292
 30
0.0
 11
-657.0212867334888
 21
354.3882500366355
 31
0.0
  0
LINE
  5
C64C
330
1F
100
AcDbEntity
  8
_0-0_
100
AcDbLine
 10
-657.0212867334888
 20
354.3882500366355
 30
0.0
 11
-657.0345143010751
 21
355.400612921547
 31
0.0
  0
LINE
  5
C64D
330
1F
100
AcDbEntity
  8
_0-0_
100
AcDbLine
 10
-657.0345143010751
 20
355.400612921547
 30
0.0
 11
-657.0580722723838
 21
356.3592539659858
 31
0.0
  0
LINE
  5
C64E
330
1F
100
AcDbEntity
  8
_0-0_
100
AcDbLine
 10
-657.0580722723838
 20
356.3592539659858
 30
0.0
 11
-657.0912448503776
 21
357.2350453469121
 31
0.0
  0
LINE
  5
C64F
330
1F
100
AcDbEntity
  8
_0-0_
100
AcDbLine
 10
-657.0912448503776
 20
357.2350453469121
 30
0.0
 11
-657.1330241030604
 21
358.0013765863887
 31
0.0
  0
LINE
  5
C650
330
1F
100
AcDbEntity
  8
_0-0_
100
AcDbLine
 10
-657.1330241030604
 20
358.0013765863887
 30
0.0
 11
-657.1821405889806
 21
358.6349630974865
 31
0.0
  0
LINE
  5
C651
330
1F
100
AcDbEntity
  8
_0-0_
100
AcDbLine
 10
-657.1821405889806
 20
358.6349630974865
 30
0.0
 11
-657.2371019285682
 21
359.116553674676
 31
0.0
  0
LINE
  5
C652
330
1F
100
AcDbEntity
  8
_0-0_
100
AcDbLine
 10
-657.2371019285682
 20
359.116553674676
 30
0.0
 11
-657.2962381493308
 21
359.4315154319654
 31
0.0
  0
LINE
  5
C653
330
1F
100
AcDbEntity
  8
_0-0_
100
AcDbLine
 10
-657.2962381493308
 20
359.4315154319654
 30
0.0
 11
-657.3577524271254
 21
359.5702784157384
 31
0.0
  0
LINE
  5
C654
330
1F
100
AcDbEntity
  8
_0-0_
100
AcDbLine
 10
-657.3577524271254
 20
359.5702784157384
 30
0.0
 11
-657.3912548332688
 21
359.5702784157384
 31
0.0
  0
LINE
  5
C655
330
1F
100
AcDbEntity
  8
_0-0_
100
AcDbLine
 10
-696.4441380863313
 20
366.6325452842893
 30
0.0
 11
-667.0770369001324
 21
366.6325452842893
 31
0.0
  0
LINE
  5
C656
330
1F
100
AcDbEntity
  8
_0-0_
100
AcDbLine
 10
-695.9623371660021
 20
362.6325452842893
 30
0.0
 11
-666.9242549441158
 21
362.6325452842893
 31
0.0
  0
LINE
  5
C657
330
1F
100
AcDbEntity
  8
_0-0_
100
AcDbLine
 10
-677.9411340701349
 20
361.9725452842899
 30
0.0
 11
-695.8998662558692
 21
361.9725452842899
 31
0.0
  0
LINE
  5
C658
330
1F
100
AcDbEntity
  8
_0-0_
100
AcDbLine
 10
-677.9411340701348
 20
345.2925452842896
 30
0.0
 11
-695.9000006777669
 21
345.2925452842896
 31
0.0
  0
LINE
  5
C659
330
1F
100
AcDbEntity
  8
_0-0_
100
AcDbLine
 10
-695.9624823245873
 20
344.6325452842898
 30
0.0
 11
-666.9242549441159
 21
344.6325452842898
 31
0.0
  0
LINE
  5
C65A
330
1F
100
AcDbEntity
  8
_0-0_
100
AcDbLine
 10
-696.4443488691013
 20
340.6325452842898
 30
0.0
 11
-667.0770369001324
 21
340.6325452842898
 31
0.0
  0
TEXT
  5
C65B
330
1F
100
AcDbEntity
  8
TEXT
 62
     3
380
     1
100
AcDbText
 10
-1144.164896990199
 20
-311.5354298993527
 30
0.0
 40
12.0
  1
外形寸法
100
AcDbText
  0
LINE
  5
C65C
330
1F
100
AcDbEntity
  8
TEXT
 62
     3
380
     1
100
AcDbLine
 10
-1045.978648968492
 20
-353.9922283190126
 30
0.0
 11
-1045.978648968492
 21
-53.99222831901261
 31
0.0
  0
TEXT
  5
C65D
330
1F
100
AcDbEntity
  8
TEXT
 62
     3
380
     1
100
AcDbText
 10
-881.6171842093403
 20
-350.1791074053949
 30
0.0
 40
12.0
  1
取扱説明書：１
100
AcDbText
  0
TEXT
  5
C65E
330
1F
100
AcDbEntity
  8
TEXT
 62
     3
380
     1
100
AcDbText
 10
-896.756431771533
 20
-329.9934439891381
 30
0.0
 40
12.0
  1
ｶｯﾌﾟﾘﾝｸﾞｶﾊﾞｰ：１
100
AcDbText
  0
TEXT
  5
C65F
330
1F
100
AcDbEntity
  8
TEXT
 62
     3
380
     1
100
AcDbText
 10
-1039.08472154237
 20
-349.7775390388281
 30
0.0
 40
12.0
  1
ボトルキャップＢ：１
100
AcDbText
  0
TEXT
  5
C660
330
1F
100
AcDbEntity
  8
TEXT
 62
     3
380
     1
100
AcDbText
 10
-1039.08472154237
 20
-329.7775390388281
 30
0.0
 40
12.0
  1
排水ホース：１
100
AcDbText
  0
TEXT
  5
C661
330
1F
100
AcDbEntity
  8
TEXT
 62
     3
380
     1
100
AcDbText
 10
-1039.728476510213
 20
-291.4936967601559
 30
0.0
 40
12.0
  1
19.5Kg
100
AcDbText
  0
TEXT
  5
C662
330
1F
100
AcDbEntity
  8
TEXT
 62
     3
380
     1
100
AcDbText
 10
-1039.728476510213
 20
-191.4936967601559
 30
0.0
 40
12.0
  1
3cm角　ｷｭｰﾌﾞｱｲｽ　約120個
100
AcDbText
  0
TEXT
  5
C663
330
1F
100
AcDbEntity
  8
TEXT
 62
     3
380
     1
100
AcDbText
 10
-1039.728476510213
 20
-171.4936967601559
 30
0.0
 40
12.0
  1
20分
100
AcDbText
  0
TEXT
  5
C664
330
1F
100
AcDbEntity
  8
TEXT
 62
     3
380
     1
100
AcDbText
 10
-1039.728476510213
 20
-131.4936967601559
 30
0.0
 40
12.0
  1
400/500W
100
AcDbText
  0
TEXT
  5
C665
330
1F
100
AcDbEntity
  8
TEXT
 62
     3
380
     1
100
AcDbText
 10
-1039.728476510213
 20
-111.4936967601559
 30
0.0
 40
12.0
  1
単相100V　50/60Hz
100
AcDbText
  0
TEXT
  5
C666
330
1F
100
AcDbEntity
  8
TEXT
 62
     3
380
     1
100
AcDbText
 10
-1039.728476510213
 20
-71.4936967601559
 30
0.0
 40
12.0
  1
マルチスライス＆ブレンダー
100
AcDbText
  0
TEXT
  5
C667
330
1F
100
AcDbEntity
  8
TEXT
 62
     3
380
     1
100
AcDbText
 10
-1127.997888827739
 20
-48.96051108717131
 30
0.0
 40
12.0
  1
主な仕様
100
AcDbText
  0
LINE
  5
C668
330
1F
100
AcDbEntity
  8
_0-0_
100
AcDbLine
 10
-51.86777143084237
 20
-2.018715569216624
 30
0.0
 11
-68.27936194670815
 21
94.48143666407316
 31
0.0
  0
LINE
  5
C669
330
1F
100
AcDbEntity
  8
_0-0_
100
AcDbLine
 10
-143.2793619467081
 20
-70.51856333592695
 30
0.0
 11
140.7206380532918
 21
-70.51856333592695
 31
0.0
  0
LINE
  5
C66A
330
1F
100
AcDbEntity
  8
_0-0_
100
AcDbLine
 10
-136.2793619467081
 20
93.98143666407316
 30
0.0
 11
-136.2793619467081
 21
94.48143666407316
 31
0.0
  0
LINE
  5
C66B
330
1F
100
AcDbEntity
  8
_0-0_
100
AcDbLine
 10
-143.2793619467081
 20
94.48143666407316
 30
0.0
 11
-136.2793619467081
 21
94.48143666407316
 31
0.0
  0
LINE
  5
C66C
330
1F
100
AcDbEntity
  8
_0-0_
100
AcDbLine
 10
-76.27936194670815
 20
94.48143666407316
 30
0.0
 11
-68.27936194670815
 21
94.48143666407316
 31
0.0
  0
LINE
  5
C66D
330
1F
100
AcDbEntity
  8
_0-0_
100
AcDbLine
 10
-76.27936194670815
 20
93.98143666407316
 30
0.0
 11
-76.27936194670815
 21
94.48143666407316
 31
0.0
  0
LINE
  5
C66E
330
1F
100
AcDbEntity
  8
_0-0_
100
AcDbLine
 10
-136.2793619467081
 20
93.98143666407316
 30
0.0
 11
-76.27936194670815
 21
93.98143666407316
 31
0.0
  0
LINE
  5
C66F
330
1F
100
AcDbEntity
  8
_0-0_
100
AcDbLine
 10
-143.2793619467081
 20
-70.51856333592695
 30
0.0
 11
-143.2793619467081
 21
94.48143666407316
 31
0.0
  0
LINE
  5
C670
330
1F
100
AcDbEntity
  8
_0-0_
100
AcDbLine
 10
140.7206380532918
 20
-11.01871556921662
 30
0.0
 11
141.7206380532918
 21
-11.01871556921662
 31
0.0
  0
LINE
  5
C671
330
1F
100
AcDbEntity
  8
_0-0_
100
AcDbLine
 10
140.7206380532918
 20
-73.51856333592696
 30
0.0
 11
140.7206380532918
 21
-11.01871556921662
 31
0.0
  0
LINE
  5
C672
330
1F
100
AcDbEntity
  8
_0-0_
100
AcDbLine
 10
-51.59124081859772
 20
-6.018563335926842
 30
0.0
 11
141.7206380532918
 21
-6.018563335926842
 31
0.0
  0
LINE
  5
C673
330
1F
100
AcDbEntity
  8
_0-0_
100
AcDbLine
 10
-51.59124081859772
 20
-2.018715569216624
 30
0.0
 11
-51.59124081859772
 21
-6.018563335926842
 31
0.0
  0
LINE
  5
C674
330
1F
100
AcDbEntity
  8
_0-0_
100
AcDbLine
 10
-51.86777143084237
 20
-2.018715569216624
 30
0.0
 11
-51.59124081859772
 21
-2.018715569216624
 31
0.0
  0
LINE
  5
C675
330
1F
100
AcDbEntity
  8
_0-0_
100
AcDbLine
 10
140.7206380532916
 20
-278.5455398599265
 30
0.0
 11
140.7206380532916
 21
-71.51856333592684
 31
0.0
  0
LINE
  5
C676
330
1F
100
AcDbEntity
  8
_0-0_
100
AcDbLine
 10
169.325914583409
 20
-2.774321249067497
 30
0.0
 11
198.196768896136
 21
-2.518563335926842
 31
0.0
  0
LINE
  5
C677
330
1F
100
AcDbEntity
  8
_0-0_
100
AcDbLine
 10
210.2206380533687
 20
-14.01856333592695
 30
0.0
 11
210.2206380533933
 21
16.98143666407304
 31
0.0
  0
LINE
  5
C678
330
1F
100
AcDbEntity
  8
_0-0_
100
AcDbLine
 10
210.2206380533933
 20
16.98143666407304
 30
0.0
 11
198.2206380533937
 21
17.40048589797391
 31
0.0
  0
LINE
  5
C679
330
1F
100
AcDbEntity
  8
_0-0_
100
AcDbLine
 10
210.2206380533687
 20
-14.01856333592695
 30
0.0
 11
198.2206380533682
 21
-14.43761256982805
 31
0.0
  0
LINE
  5
C67A
330
1F
100
AcDbEntity
  8
_0-0_
100
AcDbLine
 10
169.3206380533622
 20
-6.01871556924425
 30
0.0
 11
141.7290472969448
 21
-6.500328577370282
 31
0.0
  0
LINE
  5
C67B
330
1F
100
AcDbEntity
  8
_0-0_
100
AcDbLine
 10
169.3206380533622
 20
-6.01871556924425
 30
0.0
 11
169.3206380533636
 21
-2.178687947446292
 31
0.0
  0
LINE
  5
C67C
330
1F
100
AcDbEntity
  8
_0-0_
100
AcDbLine
 10
198.2206380531563
 20
-280.5185633359268
 30
0.0
 11
198.2206380534628
 21
104.481436664073
 31
0.0
  0
LINE
  5
C67D
330
1F
100
AcDbEntity
  8
_0-0_
100
AcDbLine
 10
-144.279361946842
 20
-278.5463733889726
 30
0.0
 11
-144.2793619465451
 21
94.48143666407316
 31
0.0
  0
LINE
  5
C67E
330
1F
100
AcDbEntity
  8
_0-0_
100
AcDbLine
 10
-144.2793619466772
 20
94.48143666407316
 30
0.0
 11
-155.017950304258
 21
94.10643689537108
 31
0.0
  0
LINE
  5
C67F
330
1F
100
AcDbEntity
  8
_0-0_
100
AcDbLine
 10
-143.2793619467084
 20
-277.0455398599265
 30
0.0
 11
-144.2793619468409
 21
-277.028084794996
 31
0.0
  0
LINE
  5
C680
330
1F
100
AcDbEntity
  8
_0-0_
100
AcDbLine
 10
-143.2793619467084
 20
-278.5455398599265
 30
0.0
 11
140.7206380532916
 21
-278.5455398599265
 31
0.0
  0
LINE
  5
C681
330
1F
100
AcDbEntity
  8
_0-0_
100
AcDbLine
 10
-143.2793619467084
 20
-278.5455398599265
 30
0.0
 11
-143.2793619467084
 21
-71.51856333592684
 31
0.0
  0
LINE
  5
C682
330
1F
100
AcDbEntity
  8
_0-0_
100
AcDbLine
 10
-143.2793619467081
 20
-73.51856333592696
 30
0.0
 11
-143.2793619467081
 21
-71.51856333592684
 31
0.0
  0
LINE
  5
C683
330
1F
100
AcDbEntity
  8
_0-0_
100
AcDbLine
 10
-143.2793619467081
 20
-71.51856333592684
 30
0.0
 11
140.7206380532916
 21
-71.51856333592684
 31
0.0
  0
LINE
  5
C684
330
1F
100
AcDbEntity
  8
_0-0_
100
AcDbLine
 10
-143.2793619467081
 20
92.98143666407316
 30
0.0
 11
-144.2793619465465
 21
92.96398159914781
 31
0.0
  0
LINE
  5
C685
330
1F
100
AcDbEntity
  8
_0-0_
100
AcDbLine
 10
-50.74151082647768
 20
-5.51856333592741
 30
0.0
 11
-67.32314347953888
 21
91.98143666407259
 31
0.0
  0
LINE
  5
C686
330
1F
100
AcDbEntity
  8
_0-0_
100
AcDbLine
 10
-378.7793791217784
 20
-10.02267809990007
 30
0.0
 11
-384.6670947391097
 21
-10.17685335927751
 31
0.0
  0
ARC
  5
C687
330
1F
100
AcDbEntity
  8
_0-0_
100
AcDbCircle
 10
-384.4315022043383
 20
-19.17376928405701
 30
0.0
 40
9.0
100
AcDbArc
 50
91.50000000000273
 51
176.9803698557215
  0
ARC
  5
C688
330
1F
100
AcDbEntity
  8
_0-0_
100
AcDbCircle
 10
-396.7599763582546
 20
-102.13975047266
 30
0.0
 40
4.0
100
AcDbArc
 50
92.00000000000361
 51
179.7267373197256
  0
ARC
  5
C689
330
1F
100
AcDbEntity
  8
_0-0_
100
AcDbCircle
 10
1309.220620878221
 20
-110.2762025665751
 30
0.0
 40
1710.0
100
AcDbArc
 50
179.7267373197288
 51
180.0081206135953
  0
ARC
  5
C68A
330
1F
100
AcDbEntity
  8
_0-0_
100
AcDbCircle
 10
1309.220620878221
 20
-110.760924105135
 30
0.0
 40
1710.0
100
AcDbArc
 50
179.9918793864046
 51
180.2732626802711
  0
ARC
  5
C68B
330
1F
100
AcDbEntity
  8
_0-0_
100
AcDbCircle
 10
-396.7599763582546
 20
-118.8973761990489
 30
0.0
 40
4.0
100
AcDbArc
 50
180.2732626802744
 51
267.9999999999964
  0
ARC
  5
C68C
330
1F
100
AcDbEntity
  8
_0-0_
100
AcDbCircle
 10
-384.4315022043383
 20
-201.8633573876522
 30
0.0
 40
9.0
100
AcDbArc
 50
183.0196301442785
 51
268.4999999999972
  0
LINE
  5
C68D
330
1F
100
AcDbEntity
  8
_0-0_
100
AcDbLine
 10
-378.7793791217784
 20
-211.0144485718109
 30
0.0
 11
-384.6670947391097
 21
-210.8602733124343
 31
0.0
  0
LINE
  5
C68E
330
1F
100
AcDbEntity
  8
_0-0_
100
AcDbLine
 10
-378.7793791217784
 20
-209.0137629868294
 30
0.0
 11
-378.7793791217784
 21
-211.0144485718109
 31
0.0
  0
LINE
  5
C68F
330
1F
100
AcDbEntity
  8
_0-0_
100
AcDbLine
 10
-378.7802697943546
 20
-210.9840426623102
 30
0.0
 11
-219.2554927894698
 21
-213.7685580025886
 31
0.0
  0
LINE
  5
C690
330
1F
100
AcDbEntity
  8
_0-0_
100
AcDbLine
 10
-378.7802697943546
 20
-210.9840426623102
 30
0.0
 11
-378.7802697943546
 21
-10.05308400939884
 31
0.0
  0
ARC
  5
C691
330
1F
100
AcDbEntity
  8
_0-0_
100
AcDbCircle
 10
1304.114271036689
 20
-110.7909241051311
 30
0.0
 40
1700.0
100
AcDbArc
 50
179.9908361143956
 51
183.0870019621569
  0
ARC
  5
C692
330
1F
100
AcDbEntity
  8
_0-0_
100
AcDbCircle
 10
1304.114271036689
 20
-110.2462025665781
 30
0.0
 40
1700.0
100
AcDbArc
 50
176.9129980378431
 51
180.009195082221
  0
LINE
  5
C693
330
1F
100
AcDbEntity
  8
_0-0_
100
AcDbLine
 10
-396.8995743450644
 20
-98.14218716458515
 30
0.0
 11
-395.8422993338311
 21
-98.0947066051624
 31
0.0
  0
LINE
  5
C694
330
1F
100
AcDbEntity
  8
_0-0_
100
AcDbLine
 10
-396.8995743450644
 20
-122.8949395071248
 30
0.0
 11
-395.8422993338311
 21
-122.9424200665477
 31
0.0
  0
LINE
  5
C695
330
1F
100
AcDbEntity
  8
_0-0_
100
AcDbLine
 10
-378.7802697943546
 20
-10.05308400939884
 30
0.0
 11
-219.255492789634
 21
-7.268568669124306
 31
0.0
  0
LINE
  5
C696
330
1F
100
AcDbEntity
  8
_0-0_
100
AcDbLine
 10
-219.2554927894655
 20
-219.3828679178436
 30
0.0
 11
-214.2139195758543
 21
-219.5148861586003
 31
0.0
  0
LINE
  5
C697
330
1F
100
AcDbEntity
  8
_0-0_
100
AcDbLine
 10
-219.2793619466217
 20
-1.654883789887435
 30
0.0
 11
-214.2139195758543
 21
-1.522240513253223
 31
0.0
  0
LINE
  5
C698
330
1F
100
AcDbEntity
  8
_0-0_
100
AcDbLine
 10
-219.279361946795
 20
-219.3822428819618
 30
0.0
 11
-219.2793619466217
 21
-1.654883789887435
 31
0.0
  0
LINE
  5
C699
330
1F
100
AcDbEntity
  8
_0-0_
100
AcDbLine
 10
-67.78616466779635
 20
91.58143666407317
 30
0.0
 11
-64.7430892160678
 21
91.58143666407317
 31
0.0
  0
LINE
  5
C69A
330
1F
100
AcDbEntity
  8
_0-0_
100
AcDbLine
 10
-48.65465384191816
 20
-3.018563335926955
 30
0.0
 11
141.7206380532918
 21
-3.018563335926955
 31
0.0
  0
LINE
  5
C69B
330
1F
100
AcDbEntity
  8
_0-0_
100
AcDbLine
 10
-206.5585579204539
 20
-276.3715359422469
 30
0.0
 11
-144.279361946842
 21
-278.5463733889726
 31
0.0
  0
LINE
  5
C69C
330
1F
100
AcDbEntity
  8
_0-0_
100
AcDbLine
 10
-214.2793619468341
 20
-268.3764093260877
 30
0.0
 11
-214.2793619466017
 21
23.48143666817259
 31
0.0
  0
ARC
  5
C69D
330
1F
100
AcDbEntity
  8
_0-0_
100
AcDbCircle
 10
-206.2793619468341
 20
-268.3764093260941
 30
0.0
 40
8.0
100
AcDbArc
 50
179.9999999999544
 51
267.9999999999964
  0
ARC
  5
C69E
330
1F
100
AcDbEntity
  8
_0-0_
100
AcDbCircle
 10
224.220638053381
 20
11.9814366640735
 30
0.0
 40
5.0
100
AcDbArc
 50
0.0
 51
90.0
  0
ARC
  5
C69F
330
1F
100
AcDbEntity
  8
_0-0_
100
AcDbCircle
 10
224.220638053381
 20
-9.018563335926501
 30
0.0
 40
5.0
100
AcDbArc
 50
270.0
 51
0.0
  0
LINE
  5
C6A0
330
1F
100
AcDbEntity
  8
_0-0_
100
AcDbLine
 10
229.220638053381
 20
-9.018563335926501
 30
0.0
 11
229.220638053381
 21
11.9814366640735
 31
0.0
  0
LINE
  5
C6A1
330
1F
100
AcDbEntity
  8
_0-0_
100
AcDbLine
 10
224.220638053381
 20
16.98143666407316
 30
0.0
 11
210.220638053381
 21
16.98143666407316
 31
0.0
  0
LINE
  5
C6A2
330
1F
100
AcDbEntity
  8
_0-0_
100
AcDbLine
 10
224.220638053381
 20
-14.01856333592684
 30
0.0
 11
210.220638053381
 21
-14.01856333592684
 31
0.0
  0
LINE
  5
C6A3
330
1F
100
AcDbEntity
  8
_0-0_
100
AcDbLine
 10
198.2206380534628
 20
104.481436664073
 30
0.0
 11
165.443193353766
 21
103.3368230731863
 31
0.0
  0
LINE
  5
C6A4
330
1F
100
AcDbEntity
  8
_0-0_
100
AcDbLine
 10
141.7206380533996
 20
24.90695641320008
 30
0.0
 11
166.0986481540051
 21
24.48143666407316
 31
0.0
  0
LINE
  5
C6A5
330
1F
100
AcDbEntity
  8
_0-0_
100
AcDbLine
 10
166.0986481540051
 20
24.48143666407316
 30
0.0
 11
169.3206380533636
 21
-2.178687947446292
 31
0.0
  0
ARC
  5
C6A6
330
1F
100
AcDbEntity
  8
_0-0_
100
AcDbCircle
 10
-57.02071081982103
 20
52.07806480720148
 30
0.0
 40
2.0
100
AcDbArc
 50
37.74707176417786
 51
99.700000000001
  0
LINE
  5
C6A7
330
1F
100
AcDbEntity
  8
_0-0_
100
AcDbLine
 10
-55.23040966535905
 20
56.44210213246935
 30
0.0
 11
-54.24470619626982
 21
56.61059151203414
 31
0.0
  0
ARC
  5
C6A8
330
1F
100
AcDbEntity
  8
_0-0_
100
AcDbCircle
 10
-54.16046150648731
 20
56.11773977748976
 30
0.0
 40
0.5
100
AcDbArc
 50
9.700000000001555
 51
99.700000000001
  0
ARC
  5
C6A9
330
1F
100
AcDbEntity
  8
_0-0_
100
AcDbCircle
 10
-55.14616497557631
 20
55.94925039792497
 30
0.0
 40
0.5
100
AcDbArc
 50
99.700000000001
 51
189.7000000000015
  0
LINE
  5
C6AA
330
1F
100
AcDbEntity
  8
_0-0_
100
AcDbLine
 10
-55.54276228399726
 20
55.30189412217828
 30
0.0
 11
-55.63901671012058
 21
55.86500570814223
 31
0.0
  0
ARC
  5
C6AB
330
1F
100
AcDbEntity
  8
_0-0_
100
AcDbCircle
 10
-56.03561401854154
 20
55.21764943239578
 30
0.0
 40
0.5
100
AcDbArc
 50
291.6999999999975
 51
9.700000000001555
  0
LINE
  5
C6AC
330
1F
100
AcDbEntity
  8
_0-0_
100
AcDbLine
 10
-53.38460209341701
 20
54.54632135531642
 30
0.0
 11
-53.66760977194303
 21
56.2019844672725
 31
0.0
  0
ARC
  5
C6AD
330
1F
100
AcDbEntity
  8
_0-0_
100
AcDbCircle
 10
-41.53437056394182
 20
57.80425713637384
 30
0.0
 40
1.0
100
AcDbArc
 50
93.00000000000558
 51
189.6518334668039
  0
LINE
  5
C6AE
330
1F
100
AcDbEntity
  8
_0-0_
100
AcDbLine
 10
-41.5867065201844
 20
58.80288667112847
 30
0.0
 11
4.343222282163651
 21
61.20997224228779
 31
0.0
  0
LINE
  5
C6AF
330
1F
100
AcDbEntity
  8
_0-0_
100
AcDbLine
 10
-55.85074063990487
 20
54.75308314662891
 30
0.0
 11
-57.81547206802861
 21
53.97122155150293
 31
0.0
  0
ARC
  5
C6B0
330
1F
100
AcDbEntity
  8
_0-0_
100
AcDbCircle
 10
-57.02071081982103
 20
52.07806480720148
 30
0.0
 40
2.0
100
AcDbArc
 50
9.700000000001555
 51
37.74707176417786
  0
ARC
  5
C6B1
330
1F
100
AcDbEntity
  8
_0-0_
100
AcDbCircle
 10
-53.87745382796083
 20
54.46207666553391
 30
0.0
 40
0.5
100
AcDbArc
 50
291.6999999999975
 51
9.700000000001555
  0
LINE
  5
C6B2
330
1F
100
AcDbEntity
  8
_0-0_
100
AcDbLine
 10
-53.69258044932417
 20
53.99751037976682
 30
0.0
 11
-55.43926909678498
 21
53.3024185455638
 31
0.0
  0
LINE
  5
C6B3
330
1F
100
AcDbEntity
  8
_0-0_
100
AcDbLine
 10
-41.97526714609421
 20
54.43230115404003
 30
0.0
 11
-54.22499660435983
 21
47.59264737191836
 31
0.0
  0
LINE
  5
C6B4
330
1F
100
AcDbEntity
  8
_0-0_
100
AcDbLine
 10
-48.65465384191816
 20
-3.018563335926955
 30
0.0
 11
-64.7430892160678
 21
91.58143666407317
 31
0.0
  0
LINE
  5
C6B5
330
1F
100
AcDbEntity
  8
_0-0_
100
AcDbLine
 10
-42.52021532776303
 20
57.63659646225483
 30
0.0
 11
-32.20471196072526
 21
-3.018563335926955
 31
0.0
  0
LINE
  5
C6B6
330
1F
100
AcDbEntity
  8
_0-0_
100
AcDbLine
 10
162.4275711243574
 20
103.7318199965938
 30
0.0
 11
165.4257436054147
 21
103.8365184867011
 31
0.0
  0
ARC
  5
C6B7
330
1F
100
AcDbEntity
  8
_0-0_
100
AcDbCircle
 10
151.696768896136
 20
77.79388911024319
 30
0.0
 40
10.0
100
AcDbArc
 50
89.86323967294564
 51
176.0404794915456
  0
LINE
  5
C6B8
330
1F
100
AcDbEntity
  8
_0-0_
100
AcDbLine
 10
151.7206380534021
 20
102.8576208827049
 30
0.0
 11
151.7206380534021
 21
87.79386062336948
 31
0.0
  0
LINE
  5
C6B9
330
1F
100
AcDbEntity
  8
_0-0_
100
AcDbLine
 10
165.443193353766
 20
103.3368230731863
 30
0.0
 11
151.7206380534021
 21
102.8576208827049
 31
0.0
  0
LINE
  5
C6BA
330
1F
100
AcDbEntity
  8
_0-0_
100
AcDbLine
 10
141.7445072106093
 20
76.98143666407054
 30
0.0
 11
141.75450721061
 21
76.98143666407054
 31
0.0
  0
LINE
  5
C6BB
330
1F
100
AcDbEntity
  8
_0-0_
100
AcDbLine
 10
47.60454387640698
 20
89.50725190768844
 30
0.0
 11
139.8004925443008
 21
86.92542968998067
 31
0.0
  0
LINE
  5
C6BC
330
1F
100
AcDbEntity
  8
_0-0_
100
AcDbLine
 10
44.69405621444503
 20
125.7207571766772
 30
0.0
 11
132.7445072106165
 21
133.4241734571867
 31
0.0
  0
LINE
  5
C6BD
330
1F
100
AcDbEntity
  8
_0-0_
100
AcDbLine
 10
51.52432681214804
 20
112.2648506971835
 30
0.0
 11
118.703220380841
 21
118.1422423126583
 31
0.0
  0
ARC
  5
C6BE
330
1F
100
AcDbEntity
  8
_0-0_
100
AcDbCircle
 10
117.7445072106166
 20
129.1003839916675
 30
0.0
 40
15.0
100
AcDbArc
 50
274.9999999999997
 51
0.0
  0
ARC
  5
C6BF
330
1F
100
AcDbEntity
  8
_0-0_
100
AcDbCircle
 10
117.7445072106166
 20
129.1003839916675
 30
0.0
 40
11.0
100
AcDbArc
 50
274.9999999999997
 51
0.0
  0
LINE
  5
C6C0
330
1F
100
AcDbEntity
  8
_0-0_
100
AcDbLine
 10
132.7445072106165
 20
133.4241734571867
 30
0.0
 11
132.7445072106165
 21
129.100383991667
 31
0.0
  0
LINE
  5
C6C1
330
1F
100
AcDbEntity
  8
_0-0_
100
AcDbLine
 10
128.7445072106163
 20
132.986730139557
 30
0.0
 11
128.7445072106163
 21
129.1003839916675
 31
0.0
  0
LINE
  5
C6C2
330
1F
100
AcDbEntity
  8
_0-0_
100
AcDbLine
 10
141.7445072106172
 20
84.9262134329408
 30
0.0
 11
141.7445072106172
 21
83.4620111086299
 31
0.0
  0
ARC
  5
C6C3
330
1F
100
AcDbEntity
  8
_0-0_
100
AcDbCircle
 10
139.7445072106172
 20
84.9262134329408
 30
0.0
 40
2.0
100
AcDbArc
 50
0.0
 51
88.39592879725683
  0
LINE
  5
C6C4
330
1F
100
AcDbEntity
  8
_0-0_
100
AcDbLine
 10
38.74450721061476
 20
98.31812492389872
 30
0.0
 11
38.74450721061476
 21
93.11260755085573
 31
0.0
  0
LINE
  5
C6C5
330
1F
100
AcDbEntity
  8
_0-0_
100
AcDbLine
 10
141.74450721061
 20
76.98143666407054
 30
0.0
 11
141.75450721061
 21
76.98143666407054
 31
0.0
  0
LINE
  5
C6C6
330
1F
100
AcDbEntity
  8
_0-0_
100
AcDbLine
 10
51.87294978313843
 20
108.2800719048166
 30
0.0
 11
119.0518433518316
 21
114.1574635202912
 31
0.0
  0
LINE
  5
C6C7
330
1F
100
AcDbEntity
  8
_0-0_
100
AcDbLine
 10
42.74450721061476
 20
98.31812492389861
 30
0.0
 11
42.74450721061476
 21
89.55933970611022
 31
0.0
  0
ARC
  5
C6C8
330
1F
100
AcDbEntity
  8
_0-0_
100
AcDbCircle
 10
52.74450721061476
 20
98.31812492389907
 30
0.0
 40
10.0
100
AcDbArc
 50
94.99999999999975
 51
180.0000000000032
  0
ARC
  5
C6C9
330
1F
100
AcDbEntity
  8
_0-0_
100
AcDbCircle
 10
52.74450721061476
 20
98.31812492389907
 30
0.0
 40
14.0
100
AcDbArc
 50
94.99999999999975
 51
180.0000000000032
  0
LINE
  5
C6CA
330
1F
100
AcDbEntity
  8
_0-0_
100
AcDbLine
 10
161.744507210594
 20
76.28302127423717
 30
0.0
 11
141.7445072106172
 21
76.98143666407043
 31
0.0
  0
ARC
  5
C6CB
330
1F
100
AcDbEntity
  8
_0-0_
100
AcDbCircle
 10
41.7572013095214
 20
96.83925992737364
 30
0.0
 40
29.03043230980399
100
AcDbArc
 50
84.19375712187836
 51
190.4630288172223
  0
ARC
  5
C6CC
330
1F
100
AcDbEntity
  8
_0-0_
100
AcDbCircle
 10
47.74450721061543
 20
94.50529255028811
 30
0.0
 40
5.0
100
AcDbArc
 50
180.0000000000032
 51
268.3959287972698
  0
ARC
  5
C6CD
330
1F
100
AcDbEntity
  8
_0-0_
100
AcDbCircle
 10
36.74450721061476
 20
93.11260755085573
 30
0.0
 40
2.0
100
AcDbArc
 50
271.5000000000027
 51
0.0000000000032569
  0
ARC
  5
C6CE
330
1F
100
AcDbEntity
  8
_0-0_
100
AcDbCircle
 10
14.24450721061362
 20
89.02222454183094
 30
0.0
 40
1.5
100
AcDbArc
 50
91.50000000000273
 51
180.0000000000032
  0
LINE
  5
C6CF
330
1F
100
AcDbEntity
  8
_0-0_
100
AcDbLine
 10
14.20524178815208
 20
90.52171052929475
 30
0.0
 11
36.79686110723106
 21
91.11329290090452
 31
0.0
  0
ARC
  5
C6D0
330
1F
100
AcDbEntity
  8
_0-0_
100
AcDbCircle
 10
10.74450721061612
 20
90.48143666407327
 30
0.0
 40
1.0
100
AcDbArc
 50
90.0
 51
180.0
  0
LINE
  5
C6D1
330
1F
100
AcDbEntity
  8
_0-0_
100
AcDbLine
 10
12.74450721061612
 20
87.44712543888045
 30
0.0
 11
12.74450721061612
 21
91.48143666407326
 31
0.0
  0
ARC
  5
C6D2
330
1F
100
AcDbEntity
  8
_0-0_
100
AcDbCircle
 10
4.29088632592061
 20
62.20860177704242
 30
0.0
 40
1.0
100
AcDbArc
 50
273.0000000000056
 51
350.7683020601333
  0
ARC
  5
C6D3
330
1F
100
AcDbEntity
  8
_0-0_
100
AcDbCircle
 10
205.6486094548543
 20
29.48143666407327
 30
0.0
 40
203.0
100
AcDbArc
 50
164.8061952385032
 51
170.7683020601333
  0
LINE
  5
C6D4
330
1F
100
AcDbEntity
  8
_0-0_
100
AcDbLine
 10
10.74450721061612
 20
91.48143666407326
 30
0.0
 11
12.74450721061294
 21
91.48143666407326
 31
0.0
  0
ARC
  5
C6D5
330
1F
100
AcDbEntity
  8
_0-0_
100
AcDbCircle
 10
205.6486094548543
 20
29.48143666407327
 30
0.0
 40
203.0
100
AcDbArc
 50
170.2225182543515
 51
189.2126148443409
  0
LINE
  5
C6D6
330
1F
100
AcDbEntity
  8
_0-0_
100
AcDbLine
 10
12.74450721061294
 20
91.48143666407326
 30
0.0
 11
12.74450721061294
 21
-3.018563335926955
 31
0.0
  0
LINE
  5
C6D7
330
1F
100
AcDbEntity
  8
_0-0_
100
AcDbLine
 10
-51.59124081859772
 20
-2.518815802241419
 30
0.0
 11
-51.25167197166229
 21
-2.518815802241419
 31
0.0
  0
LINE
  5
C6D8
330
1F
100
AcDbEntity
  8
_0-0_
100
AcDbLine
 10
-51.59124081859772
 20
-5.51856333592741
 30
0.0
 11
169.3206380533627
 21
-5.51856333592741
 31
0.0
  0
LINE
  5
C6D9
330
1F
100
AcDbEntity
  8
_0-0_
100
AcDbLine
 10
141.7206380531581
 20
-278.5455398596431
 30
0.0
 11
141.720638053375
 21
-5.51856333592741
 31
0.0
  0
LINE
  5
C6DA
330
1F
100
AcDbEntity
  8
_0-0_
100
AcDbLine
 10
141.720638053375
 20
-5.51856333592741
 30
0.0
 11
141.720638053446
 21
83.4620111086299
 31
0.0
  0
LINE
  5
C6DB
330
1F
100
AcDbEntity
  8
_0-0_
100
AcDbLine
 10
161.7445072106204
 20
-5.51856333592741
 30
0.0
 11
161.744507210594
 21
76.28302127423717
 31
0.0
  0
LINE
  5
C6DC
330
1F
100
AcDbEntity
  8
_0-0_
  6
CENTER2
100
AcDbLine
 10
219.4275381602842
 20
29.48143666407282
 30
0.0
 11
-30.15777817806748
 21
29.48143666407282
 31
0.0
  0
LINE
  5
C6DD
330
1F
100
AcDbEntity
  8
_0-0_
100
AcDbLine
 10
9.74450721061612
 20
90.48143666407327
 30
0.0
 11
9.74450721061612
 21
-3.018563335926955
 31
0.0
  0
LINE
  5
C6DE
330
1F
100
AcDbEntity
  8
_0-0_
100
AcDbLine
 10
-55.38628264077328
 20
54.38645050450896
 30
0.0
 11
-45.57386392742933
 21
-3.018563335926955
 31
0.0
  0
LINE
  5
C6DF
330
1F
100
AcDbEntity
  8
_0-0_
100
AcDbLine
 10
-58.34339304803961
 20
53.88098236581424
 30
0.0
 11
-55.38628264077328
 21
54.38645050450896
 31
0.0
  0
LINE
  5
C6E0
330
1F
100
AcDbEntity
  8
_0-0_
100
AcDbLine
 10
-28.26345918065863
 20
43.84935032098155
 30
0.0
 11
-53.93444091911169
 21
13.2558656087599
 31
0.0
  0
LINE
  5
C6E1
330
1F
100
AcDbEntity
  8
_0-0_
100
AcDbLine
 10
-20.6413169716252
 20
37.45361360460049
 30
0.0
 11
-51.28309469638384
 21
63.16511799206216
 31
0.0
  0
LINE
  5
C6E2
330
1F
100
AcDbEntity
  8
_0-0_
100
AcDbLine
 10
-12.92786565538608
 20
46.64614692202838
 30
0.0
 11
-20.6413169716252
 21
37.45361360460049
 31
0.0
  0
LINE
  5
C6E3
330
1F
100
AcDbEntity
  8
_0-0_
100
AcDbLine
 10
-12.92786565538608
 20
46.64614692202838
 30
0.0
 11
-43.56964338014541
 21
72.35765130948994
 31
0.0
  0
LINE
  5
C6E4
330
1F
100
AcDbEntity
  8
_0-0_
100
AcDbLine
 10
-43.56964338014541
 20
72.35765130948994
 30
0.0
 11
-51.28309469638384
 21
63.16511799206216
 31
0.0
  0
LINE
  5
C6E5
330
1F
100
AcDbEntity
  8
_0-0_
100
AcDbLine
 10
-43.6226502651939
 20
56.7372418951968
 30
0.0
 11
-58.34526523872842
 21
39.19151260810611
 31
0.0
  0
LINE
  5
C6E6
330
1F
100
AcDbEntity
  8
_0-0_
100
AcDbLine
 10
-155.017950304258
 20
94.10643689537119
 30
0.0
 11
-214.2793619467957
 21
23.48143666817259
 31
0.0
  0
LINE
  5
C6E7
330
1F
100
AcDbEntity
  8
_0-0_
100
AcDbLine
 10
-181.5212477190744
 20
63.00947521007754
 30
0.0
 11
-183.908594844627
 21
61.54277606386608
 31
0.0
  0
LINE
  5
C6E8
330
1F
100
AcDbEntity
  8
_0-0_
100
AcDbLine
 10
-193.7485459613358
 20
48.26025514271634
 30
0.0
 11
-181.5355813772917
 21
62.81509956197692
 31
0.0
  0
LINE
  5
C6E9
330
1F
100
AcDbEntity
  8
_0-0_
100
AcDbLine
 10
-193.9374795929532
 20
48.21238626789977
 30
0.0
 11
-192.9076213802386
 21
50.81815386020048
 31
0.0
  0
ARC
  5
C6EA
330
1F
100
AcDbEntity
  8
_0-0_
100
AcDbCircle
 10
-198.4548177322201
 20
57.4309152072143
 30
0.0
 40
0.4999999999999999
100
AcDbArc
 50
139.9999999999999
 51
229.9999999999974
  0
LINE
  5
C6EB
330
1F
100
AcDbEntity
  8
_0-0_
100
AcDbLine
 10
-198.7762115370633
 20
57.04789298565493
 30
0.0
 11
-198.3931893155038
 21
56.7264991808114
 31
0.0
  0
LINE
  5
C6EC
330
1F
100
AcDbEntity
  8
_0-0_
100
AcDbLine
 10
-198.8378399537791
 20
57.75230901205759
 30
0.0
 11
-191.7671762472275
 21
66.17879788636639
 31
0.0
  0
ARC
  5
C6ED
330
1F
100
AcDbEntity
  8
_0-0_
100
AcDbCircle
 10
-191.3841540256678
 20
65.85740408152298
 30
0.0
 40
0.4999999999999999
100
AcDbArc
 50
49.99999999999741
 51
139.9999999999999
  0
LINE
  5
C6EE
330
1F
100
AcDbEntity
  8
_0-0_
100
AcDbLine
 10
-191.0627602208249
 20
66.24042630308259
 30
0.0
 11
-190.6797379992651
 21
65.9190324982394
 31
0.0
  0
ARC
  5
C6EF
330
1F
100
AcDbEntity
  8
_0-0_
100
AcDbCircle
 10
-198.163015210401
 20
56.22294808405979
 30
0.0
 40
0.4999999999999999
100
AcDbArc
 50
139.9999999999999
 51
227.9999999999942
  0
LINE
  5
C6F0
330
1F
100
AcDbEntity
  8
_0-0_
100
AcDbLine
 10
-198.4975805135805
 20
55.85137567132107
 30
0.0
 11
-192.9076213802386
 21
50.81815386020048
 31
0.0
  0
LINE
  5
C6F1
330
1F
100
AcDbEntity
  8
_0-0_
100
AcDbLine
 10
-198.5460374319605
 20
56.5443418889032
 30
0.0
 11
-190.5268898828085
 21
66.10118979014782
 31
0.0
  0
ARC
  5
C6F2
330
1F
100
AcDbEntity
  8
_0-0_
100
AcDbCircle
 10
-190.143867661249
 20
65.77979598530453
 30
0.0
 40
0.4999999999999999
100
AcDbArc
 50
52.00000000000176
 51
139.9999999999999
  0
LINE
  5
C6F3
330
1F
100
AcDbEntity
  8
_0-0_
100
AcDbLine
 10
-189.8360369235861
 20
66.17380136210795
 30
0.0
 11
-183.908594844627
 21
61.54277606386608
 31
0.0
  0
LINE
  5
C6F4
330
1F
100
AcDbEntity
  8
_0-0_
100
AcDbLine
 10
-183.908594844627
 20
61.54277606386608
 30
0.0
 11
-192.9076213802386
 21
50.81815386020048
 31
0.0
  0
ARC
  5
C6F5
330
1F
100
AcDbEntity
  8
_0-0_
100
AcDbCircle
 10
-181.2595145796163
 20
62.58345201386737
 30
0.0
 40
0.4999999999999999
100
AcDbArc
 50
68.70884553242188
 51
121.565051177077
  0
ARC
  5
C6F6
330
1F
100
AcDbEntity
  8
_0-0_
100
AcDbCircle
 10
-193.4724791636604
 20
48.0286075946068
 30
0.0
 40
0.4999999999999999
100
AcDbArc
 50
158.4349488229213
 51
211.2911544675728
  0
LINE
  5
C6F7
330
1F
100
AcDbEntity
  8
SUNPOU
100
AcDbLine
 10
317.2110062039435
 20
-280.5185633359268
 30
0.0
 11
317.2110062039435
 21
139.4814366640726
 31
0.0
  0
LINE
  5
C6F8
330
1F
100
AcDbEntity
  8
SUNPOU
100
AcDbLine
 10
317.2110062039435
 20
-280.5185633359268
 30
0.0
 11
314.1051776627123
 21
-268.9274534204581
 31
0.0
  0
LINE
  5
C6F9
330
1F
100
AcDbEntity
  8
SUNPOU
100
AcDbLine
 10
317.2110062039435
 20
-280.5185633359268
 30
0.0
 11
320.3168347451728
 21
-268.9274534204581
 31
0.0
  0
LINE
  5
C6FA
330
1F
100
AcDbEntity
  8
SUNPOU
100
AcDbLine
 10
317.2110062039435
 20
139.4814366640726
 30
0.0
 11
314.1051776627123
 21
127.8903267486038
 31
0.0
  0
LINE
  5
C6FB
330
1F
100
AcDbEntity
  8
SUNPOU
100
AcDbLine
 10
317.2110062039435
 20
139.4814366640726
 30
0.0
 11
320.3168347451728
 21
127.8903267486038
 31
0.0
  0
LINE
  5
C6FC
330
1F
100
AcDbEntity
  8
SUNPOU
100
AcDbLine
 10
317.2110062039435
 20
-280.5185633359268
 30
0.0
 11
210.2206380531563
 21
-280.5185633359268
 31
0.0
  0
LINE
  5
C6FD
330
1F
100
AcDbEntity
  8
SUNPOU
100
AcDbLine
 10
317.2110062039435
 20
139.4814366640726
 30
0.0
 11
163.7206380532918
 21
139.4814366640726
 31
0.0
  0
LINE
  5
C6FE
330
1F
100
AcDbEntity
  8
_0-0_
100
AcDbLine
 10
156.9126765071269
 20
-339.9574254709173
 30
0.0
 11
143.0435441892546
 21
-347.9647727480674
 31
0.0
  0
LINE
  5
C6FF
330
1F
100
AcDbEntity
  8
_0-0_
100
AcDbLine
 10
210.2206380531609
 20
-275.0185633359269
 30
0.0
 11
210.2206380531854
 21
-244.0185633359269
 31
0.0
  0
LINE
  5
C700
330
1F
100
AcDbEntity
  8
_0-0_
100
AcDbLine
 10
210.2206380531854
 20
-244.0185633359269
 30
0.0
 11
198.2206380531859
 21
-243.5995141020257
 31
0.0
  0
LINE
  5
C701
330
1F
100
AcDbEntity
  8
_0-0_
100
AcDbLine
 10
210.2206380531609
 20
-275.0185633359269
 30
0.0
 11
198.2206380531604
 21
-275.4376125698279
 31
0.0
  0
LINE
  5
C702
330
1F
100
AcDbEntity
  8
_0-0_
100
AcDbLine
 10
198.2206380531563
 20
-280.5185633359268
 30
0.0
 11
141.7206380531581
 21
-278.5455398596431
 31
0.0
  0
LINE
  5
C703
330
1F
100
AcDbEntity
  8
_0-0_
100
AcDbLine
 10
141.7206380531604
 20
-275.5185633359269
 30
0.0
 11
140.7206380532916
 21
-275.4836425664398
 31
0.0
  0
ARC
  5
C704
330
1F
100
AcDbEntity
  8
_0-0_
100
AcDbCircle
 10
224.2206380531732
 20
-249.0185633359264
 30
0.0
 40
5.0
100
AcDbArc
 50
0.0
 51
90.0
  0
ARC
  5
C705
330
1F
100
AcDbEntity
  8
_0-0_
100
AcDbCircle
 10
224.2206380531732
 20
-270.0185633359264
 30
0.0
 40
5.0
100
AcDbArc
 50
270.0
 51
0.0
  0
LINE
  5
C706
330
1F
100
AcDbEntity
  8
_0-0_
100
AcDbLine
 10
229.2206380531732
 20
-270.0185633359264
 30
0.0
 11
229.2206380531732
 21
-249.0185633359264
 31
0.0
  0
LINE
  5
C707
330
1F
100
AcDbEntity
  8
_0-0_
100
AcDbLine
 10
224.2206380531732
 20
-244.0185633359266
 30
0.0
 11
210.2206380531732
 21
-244.0185633359266
 31
0.0
  0
LINE
  5
C708
330
1F
100
AcDbEntity
  8
_0-0_
100
AcDbLine
 10
224.2206380531732
 20
-275.0185633359266
 30
0.0
 11
210.2206380531732
 21
-275.0185633359266
 31
0.0
  0
LINE
  5
C709
330
1F
100
AcDbEntity
  8
_0-0_
100
AcDbLine
 10
117.5445072102825
 20
-279.6185633357436
 30
0.0
 11
129.9445072102828
 21
-279.6185633357436
 31
0.0
  0
LINE
  5
C70A
330
1F
100
AcDbEntity
  8
_0-0_
100
AcDbLine
 10
121.2445072102828
 20
-290.1738007036479
 30
0.0
 11
121.2445072102828
 21
-279.6185633357436
 31
0.0
  0
ARC
  5
C70B
330
1F
100
AcDbEntity
  8
_0-0_
100
AcDbCircle
 10
136.2445072102828
 20
-290.1738007036479
 30
0.0
 40
15.0
100
AcDbArc
 50
180.0
 51
209.9999999999973
  0
LINE
  5
C70C
330
1F
100
AcDbEntity
  8
_0-0_
100
AcDbLine
 10
126.2445072102828
 20
-290.1738007036479
 30
0.0
 11
126.2445072102828
 21
-279.6185633357436
 31
0.0
  0
ARC
  5
C70D
330
1F
100
AcDbEntity
  8
_0-0_
100
AcDbCircle
 10
136.2445072102828
 20
-290.1738007036479
 30
0.0
 40
10.0
100
AcDbArc
 50
180.0
 51
209.9999999999973
  0
ARC
  5
C70E
330
1F
100
AcDbEntity
  8
_0-0_
100
AcDbCircle
 10
117.5445072102825
 20
-277.6185633357436
 30
0.0
 40
2.0
100
AcDbArc
 50
207.6124287622221
 51
270.0
  0
ARC
  5
C70F
330
1F
100
AcDbEntity
  8
_0-0_
100
AcDbCircle
 10
129.9445072102828
 20
-277.6185633357436
 30
0.0
 40
2.0
100
AcDbArc
 50
270.0
 51
332.3875712377779
  0
LINE
  5
C710
330
1F
100
AcDbEntity
  8
_0-0_
100
AcDbLine
 10
127.5842531724379
 20
-295.1738007036478
 30
0.0
 11
154.3082373671129
 21
-341.4610991094924
 31
0.0
  0
LINE
  5
C711
330
1F
100
AcDbEntity
  8
_0-0_
100
AcDbLine
 10
123.2541261535159
 20
-297.6738007036479
 30
0.0
 11
149.9781103481907
 21
-343.9610991094923
 31
0.0
  0
LINE
  5
C712
330
1F
100
AcDbEntity
  8
_0-0_
100
AcDbLine
 10
201.2856133751268
 20
-138.0806532698741
 30
0.0
 11
205.3318445125142
 21
-163.6275512422787
 31
0.0
  0
LINE
  5
C713
330
1F
100
AcDbEntity
  8
_0-0_
100
AcDbLine
 10
219.5774339720299
 20
-125.7405014880659
 30
0.0
 11
225.0826313924429
 21
-160.4989500397776
 31
0.0
  0
ARC
  5
C714
330
1F
100
AcDbEntity
  8
_0-0_
100
AcDbCircle
 10
204.7621088631033
 20
-128.0870184636699
 30
0.0
 40
15.0
100
AcDbArc
 50
9.000000000000898
 51
87.9999999999964
  0
LINE
  5
C715
330
1F
100
AcDbEntity
  8
_0-0_
100
AcDbLine
 10
206.4359901488403
 20
-166.6862105963998
 30
0.0
 11
205.8792658943525
 21
-167.0842692567019
 31
0.0
  0
LINE
  5
C716
330
1F
100
AcDbEntity
  8
_0-0_
100
AcDbLine
 10
208.3778162956717
 20
-173.2698469758677
 30
0.0
 11
225.1683291341774
 21
-170.6102649306009
 31
0.0
  0
LINE
  5
C717
330
1F
100
AcDbEntity
  8
_0-0_
100
AcDbLine
 10
225.1683291341774
 20
-170.6102649306009
 30
0.0
 11
226.1776373371386
 21
-167.41298091735
 31
0.0
  0
ARC
  5
C718
330
1F
100
AcDbEntity
  8
_0-0_
100
AcDbCircle
 10
225.6760628422648
 20
-166.7297534044182
 30
0.0
 40
0.5
100
AcDbArc
 50
170.5652167394498
 51
252.4347304041802
  0
LINE
  5
C719
330
1F
100
AcDbEntity
  8
_0-0_
100
AcDbLine
 10
206.4267865219922
 20
-170.5411784487864
 30
0.0
 11
208.377816295671
 21
-173.269846975867
 31
0.0
  0
ARC
  5
C71A
330
1F
100
AcDbEntity
  8
_0-0_
100
AcDbCircle
 10
206.6926986987942
 20
-169.7363908621009
 30
0.0
 40
0.5
100
AcDbArc
 50
305.5648307624102
 51
27.43511438647094
  0
LINE
  5
C71B
330
1F
100
AcDbEntity
  8
_0-0_
100
AcDbLine
 10
224.6353060382892
 20
-163.1908818135043
 30
0.0
 11
225.0826313924429
 21
-160.4989500397812
 31
0.0
  0
ARC
  5
C71C
330
1F
100
AcDbEntity
  8
_0-0_
100
AcDbCircle
 10
225.1285424592309
 20
-163.2728442015674
 30
0.0
 40
0.5
100
AcDbArc
 50
170.5652217691342
 51
252.4347233646544
  0
LINE
  5
C71D
330
1F
100
AcDbEntity
  8
_0-0_
100
AcDbLine
 10
225.6301167094964
 20
-163.9560717252657
 30
0.0
 11
224.9776463760281
 21
-163.7495310716131
 31
0.0
  0
LINE
  5
C71E
330
1F
100
AcDbEntity
  8
_0-0_
100
AcDbLine
 10
205.3317452667129
 20
-163.6273600646211
 30
0.0
 11
206.5889448854764
 21
-166.0491096536216
 31
0.0
  0
ARC
  5
C71F
330
1F
100
AcDbEntity
  8
_0-0_
100
AcDbCircle
 10
206.1451783168941
 20
-166.2794815976795
 30
0.0
 40
0.5
100
AcDbArc
 50
305.5648237229573
 51
27.43511966603752
  0
LINE
  5
C720
330
1F
100
AcDbEntity
  8
_0-0_
100
AcDbLine
 10
198.2206380531302
 20
-138.2958392130248
 30
0.0
 11
201.2856133751268
 21
-138.0806532698741
 31
0.0
  0
LINE
  5
C721
330
1F
100
AcDbEntity
  8
_0-0_
100
AcDbLine
 10
205.2856013136406
 20
-113.0961560583835
 30
0.0
 11
198.2206380531302
 21
-112.6592678752928
 31
0.0
  0
LINE
  5
C722
330
1F
100
AcDbEntity
  8
_0-0_
100
AcDbLine
 10
206.4267865219933
 20
-170.5411784487864
 30
0.0
 11
226.1776373371386
 21
-167.41298091735
 31
0.0
  0
LINE
  5
C723
330
1F
100
AcDbEntity
  8
_0-0_
100
AcDbLine
 10
205.8792710031048
 20
-167.084268447459
 30
0.0
 11
225.63012181825
 21
-163.9560709160229
 31
0.0
  0
LINE
  5
C724
330
1F
100
AcDbEntity
  8
_0-0_
100
AcDbLine
 10
205.323000865802
 20
-163.5721164971113
 30
0.0
 11
225.073851680947
 21
-160.4439189656749
 31
0.0
  0
LINE
  5
C725
330
1F
100
AcDbEntity
  8
_0-0_
100
AcDbLine
 10
207.055229019692
 20
-166.3917828296315
 30
0.0
 11
224.3856946373878
 21
-163.6469329863861
 31
0.0
  0
LINE
  5
C726
330
1F
100
AcDbEntity
  8
_0-0_
100
AcDbLine
 10
207.6027445385805
 20
-169.848692830959
 30
0.0
 11
224.9332101562768
 21
-167.1038429877133
 31
0.0
  0
LINE
  5
C727
330
1F
100
AcDbEntity
  8
_0-0_
100
AcDbLine
 10
205.8792658943525
 20
-167.0842692567019
 30
0.0
 11
207.136465288605
 21
-169.5060189589335
 31
0.0
  0
LINE
  5
C728
330
1F
100
AcDbEntity
  8
_0-0_
100
AcDbLine
 10
206.9835105807119
 20
-170.1431198250912
 30
0.0
 11
206.4267865219933
 21
-170.5411784487864
 31
0.0
  0
LINE
  5
C729
330
1F
100
AcDbEntity
  8
_0-0_
100
AcDbLine
 10
225.1828264285189
 20
-166.6477909730561
 30
0.0
 11
225.6301167094964
 21
-163.9560717252657
 31
0.0
  0
LINE
  5
C72A
330
1F
100
AcDbEntity
  8
_0-0_
100
AcDbLine
 10
225.5251668176281
 20
-167.206440293004
 30
0.0
 11
226.1776373371386
 21
-167.41298091735
 31
0.0
  0
LINE
  5
C72B
330
1F
100
AcDbEntity
  8
SUNPOU
100
AcDbLine
 10
142.0926490002048
 20
-341.4573320239774
 30
0.0
 11
131.7003441547908
 21
-347.4573320239774
 31
0.0
  0
LINE
  5
C72C
330
1F
100
AcDbEntity
  8
SUNPOU
100
AcDbLine
 10
142.0926490002048
 20
-341.4573320239774
 30
0.0
 11
136.0926490002048
 21
-351.8496368693907
 31
0.0
  0
LINE
  5
C72D
330
1F
100
AcDbEntity
  8
TEXT
 62
     3
380
     1
100
AcDbLine
 10
9.126776178681893
 20
-376.5591668340117
 30
0.0
 11
106.9908141901701
 21
-376.5591668340117
 31
0.0
  0
LINE
  5
C72E
330
1F
100
AcDbEntity
  8
TEXT
 62
     3
380
     1
100
AcDbLine
 10
106.9908141901701
 20
-376.5591668340117
 30
0.0
 11
142.0926490002048
 21
-341.4573320239774
 31
0.0
  0
TEXT
  5
C72F
330
1F
100
AcDbEntity
  8
SUNPOU
100
AcDbText
 10
315.2110062039435
 20
-83.51856333592719
 30
0.0
 40
16.0
  1
420
 50
90.0
100
AcDbText
  0
TEXT
  5
C730
330
1F
100
AcDbEntity
  8
TEXT
 62
     3
380
     1
100
AcDbText
 10
324.2538297479048
 20
-223.1915430464246
 30
0.0
 40
16.0
  1
排水ホース接続口
100
AcDbText
  0
TEXT
  5
C731
330
1F
100
AcDbEntity
  8
TEXT
 62
     3
380
     1
100
AcDbText
 10
330.4208817300334
 20
-245.736667505683
 30
0.0
 40
16.0
  1
（360°回転可）
100
AcDbText
  0
TEXT
  5
C732
330
1F
100
AcDbEntity
  8
TEXT
 62
     3
380
     1
100
AcDbText
 10
12.73264810265869
 20
-377.3679605365858
 30
0.0
 40
16.0
  1
電源コード
100
AcDbText
  0
ARC
  5
C733
330
1F
100
AcDbEntity
  8
_0-0_
100
AcDbCircle
 10
-154.3008673243287
 20
353.6325452846627
 30
0.0
 40
78.0215053775989
100
AcDbArc
 50
326.9040406128006
 51
359.9999999997264
  0
LINE
  5
C734
330
1F
100
AcDbEntity
  8
_0-0_
100
AcDbLine
 10
13.72063805327025
 20
265.3611233740894
 30
0.0
 11
-43.27936194672974
 21
265.3611233740894
 31
0.0
  0
LINE
  5
C735
330
1F
100
AcDbEntity
  8
_0-0_
100
AcDbLine
 10
13.72063805327025
 20
265.3611233740894
 30
0.0
 11
38.72063805327025
 21
264.7674702922893
 31
0.0
  0
ARC
  5
C736
330
1F
100
AcDbEntity
  8
_0-0_
100
AcDbCircle
 10
-106.2793619467295
 20
384.9325452842893
 30
0.0
 40
20.7
100
AcDbArc
 50
33.09595938719944
 51
146.9040406128006
  0
ARC
  5
C737
330
1F
100
AcDbEntity
  8
_0-0_
100
AcDbCircle
 10
-154.3008673243287
 20
353.6325452839171
 30
0.0
 40
78.0215053775989
100
AcDbArc
 50
0.0000000002735786
 51
33.09595938719944
  0
ARC
  5
C738
330
1F
100
AcDbEntity
  8
_0-0_
100
AcDbCircle
 10
-106.2793619467297
 20
322.3325452842896
 30
0.0
 40
20.7
100
AcDbArc
 50
213.0959593871994
 51
326.9040406128006
  0
ARC
  5
C739
330
1F
100
AcDbEntity
  8
_0-0_
100
AcDbCircle
 10
-58.25785656913058
 20
353.6325452839167
 30
0.0
 40
78.0215053775989
100
AcDbArc
 50
146.9040406128006
 51
179.9999999997264
  0
ARC
  5
C73A
330
1F
100
AcDbEntity
  8
_0-0_
100
AcDbCircle
 10
-58.25785656913058
 20
353.6325452846627
 30
0.0
 40
78.0215053775989
100
AcDbArc
 50
180.0000000002736
 51
213.0959593871994
  0
LINE
  5
C73B
330
1F
100
AcDbEntity
  8
_0-0_
100
AcDbLine
 10
141.7206380532916
 20
264.7674702922893
 30
0.0
 11
38.72063805327025
 21
264.7674702922893
 31
0.0
  0
LINE
  5
C73C
330
1F
100
AcDbEntity
  8
_0-0_
100
AcDbLine
 10
141.7206380532916
 20
263.6325452842893
 30
0.0
 11
-48.65465384193976
 21
263.6325452842893
 31
0.0
  0
ARC
  5
C73D
330
1F
100
AcDbEntity
  8
_0-0_
100
AcDbCircle
 10
409.6687288938182
 20
353.6325452842894
 30
0.0
 40
474.4118181099073
100
AcDbArc
 50
165.0358580721175
 51
194.9641419278824
  0
LINE
  5
C73E
330
1F
100
AcDbEntity
  8
_0-0_
100
AcDbLine
 10
-48.65465384193885
 20
443.6325452842898
 30
0.0
 11
-43.27936194672974
 21
441.9039671944899
 31
0.0
  0
LINE
  5
C73F
330
1F
100
AcDbEntity
  8
_0-0_
100
AcDbLine
 10
-48.65465384193976
 20
263.6325452842893
 30
0.0
 11
-43.27936194672974
 21
265.3611233740894
 31
0.0
  0
LINE
  5
C740
330
1F
100
AcDbEntity
  8
_0-0_
100
AcDbLine
 10
-143.2793619467297
 20
225.6331580108435
 30
0.0
 11
141.7206380532916
 21
225.6331580108435
 31
0.0
  0
LINE
  5
C741
330
1F
100
AcDbEntity
  8
_0-0_
100
AcDbLine
 10
141.7206380532916
 20
227.3041271322895
 30
0.0
 11
-51.5912408186191
 21
227.3041271322895
 31
0.0
  0
LINE
  5
C742
330
1F
100
AcDbEntity
  8
_0-0_
100
AcDbLine
 10
-51.5912408186191
 20
227.3041271322895
 30
0.0
 11
-51.5912408186191
 21
231.1325452842898
 31
0.0
  0
LINE
  5
C743
330
1F
100
AcDbEntity
  8
_0-0_
100
AcDbLine
 10
-48.65465384193976
 20
231.1325452842898
 30
0.0
 11
-48.65465384193976
 21
263.6325452842893
 31
0.0
  0
LINE
  5
C744
330
1F
100
AcDbEntity
  8
_0-0_
100
AcDbLine
 10
-48.65465384193953
 20
443.6325452842898
 30
0.0
 11
-48.65465384193953
 21
476.1325452842897
 31
0.0
  0
LINE
  5
C745
330
1F
100
AcDbEntity
  8
_0-0_
100
AcDbLine
 10
-52.22562217238987
 20
231.1325452842898
 30
0.0
 11
-51.5912408186191
 21
231.1325452842898
 31
0.0
  0
LINE
  5
C746
330
1F
100
AcDbEntity
  8
_0-0_
100
AcDbLine
 10
-51.5912408186191
 20
479.9609634362898
 30
0.0
 11
-51.5912408186191
 21
476.1325452842897
 31
0.0
  0
LINE
  5
C747
330
1F
100
AcDbEntity
  8
_0-0_
100
AcDbLine
 10
-52.22562217238987
 20
476.1325452842897
 30
0.0
 11
-51.5912408186191
 21
476.1325452842897
 31
0.0
  0
ARC
  5
C748
330
1F
100
AcDbEntity
  8
_0-0_
100
AcDbCircle
 10
407.1230294991501
 20
353.6325452842894
 30
0.0
 40
475.4023914458796
100
AcDbArc
 50
165.0677646099307
 51
194.9322353900693
  0
LINE
  5
C749
330
1F
100
AcDbEntity
  8
_0-0_
100
AcDbLine
 10
-51.5912408186191
 20
231.1325452842898
 30
0.0
 11
141.7206380532916
 21
231.1325452842898
 31
0.0
  0
LINE
  5
C74A
330
1F
100
AcDbEntity
  8
_0-0_
100
AcDbLine
 10
-51.5912408186191
 20
476.1325452842897
 30
0.0
 11
141.7206380532916
 21
476.1325452842897
 31
0.0
  0
LINE
  5
C74B
330
1F
100
AcDbEntity
  8
_0-0_
100
AcDbLine
 10
141.7206380532916
 20
479.9609634362898
 30
0.0
 11
-51.5912408186191
 21
479.9609634362898
 31
0.0
  0
LINE
  5
C74C
330
1F
100
AcDbEntity
  8
_0-0_
100
AcDbLine
 10
141.7206380532916
 20
481.6319325577356
 30
0.0
 11
141.7206380532916
 21
225.6331580108435
 31
0.0
  0
LINE
  5
C74D
330
1F
100
AcDbEntity
  8
_0-0_
100
AcDbLine
 10
198.2206380532916
 20
483.6325452842897
 30
0.0
 11
141.7206380532916
 21
481.6595218080058
 31
0.0
  0
LINE
  5
C74E
330
1F
100
AcDbEntity
  8
_0-0_
100
AcDbLine
 10
198.2206380532916
 20
223.6325452842895
 30
0.0
 11
198.2206380532916
 21
483.6325452842897
 31
0.0
  0
LINE
  5
C74F
330
1F
100
AcDbEntity
  8
_0-0_
100
AcDbLine
 10
141.7206380532916
 20
225.6055687605733
 30
0.0
 11
141.7206380532916
 21
481.6595218080058
 31
0.0
  0
LINE
  5
C750
330
1F
100
AcDbEntity
  8
_0-0_
100
AcDbLine
 10
151.7206380532916
 20
400.7833375893892
 30
0.0
 11
141.7206380532916
 21
401.1325452842897
 31
0.0
  0
LINE
  5
C751
330
1F
100
AcDbEntity
  8
_0-0_
100
AcDbLine
 10
151.7206380532916
 20
306.4817529791897
 30
0.0
 11
151.7206380532916
 21
400.7833375893892
 31
0.0
  0
LINE
  5
C752
330
1F
100
AcDbEntity
  8
_0-0_
100
AcDbLine
 10
151.7206380532916
 20
306.4817529791897
 30
0.0
 11
141.7206380532916
 21
306.1325452842898
 31
0.0
  0
LINE
  5
C753
330
1F
100
AcDbEntity
  8
_0-0_
100
AcDbLine
 10
198.2206380532916
 20
481.8504999017068
 30
0.0
 11
141.7206380532916
 21
479.8919721027068
 31
0.0
  0
LINE
  5
C754
330
1F
100
AcDbEntity
  8
_0-0_
100
AcDbLine
 10
198.2206380532916
 20
223.6325452842895
 30
0.0
 11
141.7206380532916
 21
225.6055687605733
 31
0.0
  0
LINE
  5
C755
330
1F
100
AcDbEntity
  8
_0-0_
100
AcDbLine
 10
198.2206380532916
 20
225.4145906668721
 30
0.0
 11
141.7206380532916
 21
227.373118465872
 31
0.0
  0
LINE
  5
C756
330
1F
100
AcDbEntity
  8
_0-0_
100
AcDbLine
 10
166.0986481538339
 20
241.8293018585698
 30
0.0
 11
141.7206380532916
 21
242.0939827285697
 31
0.0
  0
LINE
  5
C757
330
1F
100
AcDbEntity
  8
_0-0_
100
AcDbLine
 10
166.0986481538339
 20
465.4357887100095
 30
0.0
 11
141.7206380532916
 21
465.1711078400092
 31
0.0
  0
LINE
  5
C758
330
1F
100
AcDbEntity
  8
_0-0_
100
AcDbLine
 10
169.3206380531908
 20
230.522340483174
 30
0.0
 11
166.0986481538339
 21
241.8293018585698
 31
0.0
  0
LINE
  5
C759
330
1F
100
AcDbEntity
  8
_0-0_
100
AcDbLine
 10
169.3206380531908
 20
226.4163863021163
 30
0.0
 11
169.3206380531908
 21
230.522340483174
 31
0.0
  0
LINE
  5
C75A
330
1F
100
AcDbEntity
  8
_0-0_
100
AcDbLine
 10
169.3206380531912
 20
476.7427500854046
 30
0.0
 11
166.0986481538339
 21
465.4357887100095
 31
0.0
  0
LINE
  5
C75B
330
1F
100
AcDbEntity
  8
_0-0_
100
AcDbLine
 10
169.3206380531912
 20
480.8487042664628
 30
0.0
 11
169.3206380531912
 21
476.7427500854046
 31
0.0
  0
LINE
  5
C75C
330
1F
100
AcDbEntity
  8
_0-0_
100
AcDbLine
 10
-143.2793619467295
 20
481.6319325577356
 30
0.0
 11
141.7206380532918
 21
481.6319325577356
 31
0.0
  0
LINE
  5
C75D
330
1F
100
AcDbEntity
  8
_0-0_
100
AcDbLine
 10
-143.27936194686
 20
225.6055687601574
 30
0.0
 11
-143.27936194686
 21
481.6595218084212
 31
0.0
  0
LINE
  5
C75E
330
1F
100
AcDbEntity
  8
_0-0_
100
AcDbLine
 10
210.2206380532909
 20
258.6163776608748
 30
0.0
 11
210.2206380532909
 21
227.6163776608748
 31
0.0
  0
ARC
  5
C75F
330
1F
100
AcDbEntity
  8
_0-0_
100
AcDbCircle
 10
224.2206380532916
 20
232.6163776608748
 30
0.0
 40
5.0
100
AcDbArc
 50
270.0
 51
0.0
  0
ARC
  5
C760
330
1F
100
AcDbEntity
  8
_0-0_
100
AcDbCircle
 10
224.2206380532916
 20
253.6163776608749
 30
0.0
 40
5.0
100
AcDbArc
 50
0.0
 51
90.0
  0
LINE
  5
C761
330
1F
100
AcDbEntity
  8
_0-0_
100
AcDbLine
 10
229.2206380532916
 20
253.6163776608749
 30
0.0
 11
229.2206380532916
 21
232.6163776608748
 31
0.0
  0
LINE
  5
C762
330
1F
100
AcDbEntity
  8
_0-0_
100
AcDbLine
 10
224.2206380532916
 20
227.6163776608748
 30
0.0
 11
210.2206380532916
 21
227.6163776608748
 31
0.0
  0
LINE
  5
C763
330
1F
100
AcDbEntity
  8
_0-0_
100
AcDbLine
 10
224.2206380532916
 20
258.6163776608748
 30
0.0
 11
210.2206380532916
 21
258.6163776608748
 31
0.0
  0
LINE
  5
C764
330
1F
100
AcDbEntity
  8
_0-0_
100
AcDbLine
 10
210.2206380532909
 20
258.6163776608748
 30
0.0
 11
198.2206380532916
 21
259.0354268947756
 31
0.0
  0
LINE
  5
C765
330
1F
100
AcDbEntity
  8
_0-0_
100
AcDbLine
 10
210.2206380532909
 20
448.648712907704
 30
0.0
 11
210.2206380532909
 21
479.648712907704
 31
0.0
  0
ARC
  5
C766
330
1F
100
AcDbEntity
  8
_0-0_
100
AcDbCircle
 10
224.2206380532916
 20
474.648712907704
 30
0.0
 40
5.0
100
AcDbArc
 50
0.0
 51
90.0
  0
ARC
  5
C767
330
1F
100
AcDbEntity
  8
_0-0_
100
AcDbCircle
 10
224.2206380532916
 20
453.648712907704
 30
0.0
 40
5.0
100
AcDbArc
 50
270.0
 51
0.0
  0
LINE
  5
C768
330
1F
100
AcDbEntity
  8
_0-0_
100
AcDbLine
 10
229.2206380532916
 20
453.648712907704
 30
0.0
 11
229.2206380532916
 21
474.648712907704
 31
0.0
  0
LINE
  5
C769
330
1F
100
AcDbEntity
  8
_0-0_
100
AcDbLine
 10
224.2206380532916
 20
479.648712907704
 30
0.0
 11
210.2206380532916
 21
479.648712907704
 31
0.0
  0
LINE
  5
C76A
330
1F
100
AcDbEntity
  8
_0-0_
100
AcDbLine
 10
224.2206380532916
 20
448.648712907704
 30
0.0
 11
210.2206380532916
 21
448.648712907704
 31
0.0
  0
LINE
  5
C76B
330
1F
100
AcDbEntity
  8
_0-0_
100
AcDbLine
 10
210.2206380532919
 20
479.648712907704
 30
0.0
 11
198.2206380532916
 21
480.0677621416048
 31
0.0
  0
LINE
  5
C76C
330
1F
100
AcDbEntity
  8
_0-0_
100
AcDbLine
 10
210.2206380532909
 20
448.648712907704
 30
0.0
 11
198.2206380532916
 21
448.2296636738028
 31
0.0
  0
LINE
  5
C76D
330
1F
100
AcDbEntity
  8
_0-0_
100
AcDbLine
 10
210.2206380532919
 20
227.6163776608748
 30
0.0
 11
198.2206380532916
 21
227.1973284269738
 31
0.0
  0
LINE
  5
C76E
330
1F
100
AcDbEntity
  8
_0-0_
100
AcDbLine
 10
198.2206380532916
 20
483.6325452842897
 30
0.0
 11
198.2206380532916
 21
223.6325452842895
 31
0.0
  0
LINE
  5
C76F
330
1F
100
AcDbEntity
  8
_0-0_
100
AcDbLine
 10
-219.2793619468109
 20
244.9671645309607
 30
0.0
 11
-219.2793619468109
 21
462.297926037618
 31
0.0
  0
ARC
  5
C770
330
1F
100
AcDbEntity
  8
_0-0_
100
AcDbCircle
 10
-276.0276956258483
 20
353.6325452842898
 30
0.0
 40
121.009745321538
100
AcDbArc
 50
300.6821963734858
 51
59.31780362651589
  0
LINE
  5
C771
330
1F
100
AcDbEntity
  8
_0-0_
100
AcDbLine
 10
-143.2793619467297
 20
480.2797931924486
 30
0.0
 11
-144.27936194686
 21
480.2623381275177
 31
0.0
  0
LINE
  5
C772
330
1F
100
AcDbEntity
  8
_0-0_
100
AcDbLine
 10
-143.2793619467297
 20
226.9852973761308
 30
0.0
 11
-144.27936194686
 21
227.0027524410612
 31
0.0
  0
LINE
  5
C773
330
1F
100
AcDbEntity
  8
_0-0_
100
AcDbLine
 10
-144.27936194686
 20
225.6055687603857
 30
0.0
 11
-144.27936194686
 21
481.6595218081936
 31
0.0
  0
LINE
  5
C774
330
1F
100
AcDbEntity
  8
_0-0_
100
AcDbLine
 10
-206.5585579204337
 20
227.7804062071104
 30
0.0
 11
-144.27936194686
 21
225.6055687603857
 31
0.0
  0
ARC
  5
C775
330
1F
100
AcDbEntity
  8
_0-0_
100
AcDbCircle
 10
-206.2793619468136
 20
235.7755328232631
 30
0.0
 40
8.0
100
AcDbArc
 50
180.0
 51
267.9999999999964
  0
LINE
  5
C776
330
1F
100
AcDbEntity
  8
_0-0_
100
AcDbLine
 10
-214.2793619468136
 20
471.4895577453162
 30
0.0
 11
-214.2793619468136
 21
235.7755328232631
 31
0.0
  0
LINE
  5
C777
330
1F
100
AcDbEntity
  8
_0-0_
100
AcDbLine
 10
-206.5585579204335
 20
479.4846843614688
 30
0.0
 11
-144.27936194686
 21
481.6595218081936
 31
0.0
  0
ARC
  5
C778
330
1F
100
AcDbEntity
  8
_0-0_
100
AcDbCircle
 10
-206.2793619468136
 20
471.4895577453162
 30
0.0
 40
8.0
100
AcDbArc
 50
92.00000000000361
 51
180.0
  0
LINE
  5
C779
330
1F
100
AcDbEntity
  8
_0-0_
100
AcDbLine
 10
-378.7793791218837
 20
454.1284305203166
 30
0.0
 11
-384.6670947392149
 21
453.9742552609388
 31
0.0
  0
ARC
  5
C77A
330
1F
100
AcDbEntity
  8
_0-0_
100
AcDbCircle
 10
-384.4315022044436
 20
444.9773393361597
 30
0.0
 40
9.0
100
AcDbArc
 50
91.50000000000273
 51
176.9803698557215
  0
ARC
  5
C77B
330
1F
100
AcDbEntity
  8
_0-0_
100
AcDbCircle
 10
-396.7599763583598
 20
362.0113581475566
 30
0.0
 40
4.0
100
AcDbArc
 50
92.00000000000361
 51
179.7267373197256
  0
ARC
  5
C77C
330
1F
100
AcDbEntity
  8
_0-0_
100
AcDbCircle
 10
1309.220620878115
 20
353.8749060536416
 30
0.0
 40
1710.0
100
AcDbArc
 50
179.7267373197288
 51
180.0081206135953
  0
ARC
  5
C77D
330
1F
100
AcDbEntity
  8
_0-0_
100
AcDbCircle
 10
1309.220620878115
 20
353.3901845150817
 30
0.0
 40
1710.0
100
AcDbArc
 50
179.9918793864046
 51
180.2732626802711
  0
ARC
  5
C77E
330
1F
100
AcDbEntity
  8
_0-0_
100
AcDbCircle
 10
-396.7599763583598
 20
345.2537324211676
 30
0.0
 40
4.0
100
AcDbArc
 50
180.2732626802744
 51
267.9999999999964
  0
ARC
  5
C77F
330
1F
100
AcDbEntity
  8
_0-0_
100
AcDbCircle
 10
-384.4315022044436
 20
262.2877512325647
 30
0.0
 40
9.0
100
AcDbArc
 50
183.0196301442785
 51
268.4999999999972
  0
LINE
  5
C780
330
1F
100
AcDbEntity
  8
_0-0_
100
AcDbLine
 10
-378.7793791218837
 20
253.1366600484057
 30
0.0
 11
-384.6670947392149
 21
253.2908353077823
 31
0.0
  0
LINE
  5
C781
330
1F
100
AcDbEntity
  8
_0-0_
100
AcDbLine
 10
-378.7802697944599
 20
253.1670659579063
 30
0.0
 11
-219.2554927895749
 21
250.3825506176281
 31
0.0
  0
LINE
  5
C782
330
1F
100
AcDbEntity
  8
_0-0_
100
AcDbLine
 10
-378.7802697944599
 20
253.1670659579063
 30
0.0
 11
-378.7802697944599
 21
454.0980246108179
 31
0.0
  0
ARC
  5
C783
330
1F
100
AcDbEntity
  8
_0-0_
100
AcDbCircle
 10
1304.114271036584
 20
353.3601845150856
 30
0.0
 40
1700.0
100
AcDbArc
 50
179.9908361143956
 51
183.0870019621569
  0
ARC
  5
C784
330
1F
100
AcDbEntity
  8
_0-0_
100
AcDbCircle
 10
1304.114271036584
 20
353.9049060536386
 30
0.0
 40
1700.0
100
AcDbArc
 50
176.9129980378431
 51
180.009195082221
  0
LINE
  5
C785
330
1F
100
AcDbEntity
  8
_0-0_
100
AcDbLine
 10
-396.8995743451697
 20
366.0089214556315
 30
0.0
 11
-395.8422993339361
 21
366.0564020150541
 31
0.0
  0
LINE
  5
C786
330
1F
100
AcDbEntity
  8
_0-0_
100
AcDbLine
 10
-396.8995743451697
 20
341.2561691130918
 30
0.0
 11
-395.8422993339361
 21
341.2086885536689
 31
0.0
  0
LINE
  5
C787
330
1F
100
AcDbEntity
  8
_0-0_
100
AcDbLine
 10
-378.7802697944599
 20
454.0980246108179
 30
0.0
 11
-219.2554927897395
 21
456.8825399510926
 31
0.0
  0
LINE
  5
C788
330
1F
100
AcDbEntity
  8
_0-0_
100
AcDbLine
 10
-219.2554927895705
 20
244.7682407023731
 30
0.0
 11
-214.2139195759591
 21
244.6362224616162
 31
0.0
  0
LINE
  5
C789
330
1F
100
AcDbEntity
  8
_0-0_
100
AcDbLine
 10
-219.279361946727
 20
462.4962248303295
 30
0.0
 11
-214.2139195759591
 21
462.6288681069634
 31
0.0
  0
LINE
  5
C78A
330
1F
100
AcDbEntity
  8
_0-0_
100
AcDbLine
 10
-219.2793619469003
 20
244.7688657382546
 30
0.0
 11
-219.279361946727
 21
462.4962248303295
 31
0.0
  0
LINE
  5
C78B
330
1F
100
AcDbEntity
  8
_0-0_
100
AcDbLine
 10
141.7206380532916
 20
443.6325452842898
 30
0.0
 11
-48.65465384193885
 21
443.6325452842898
 31
0.0
  0
LINE
  5
C78C
330
1F
100
AcDbEntity
  8
_0-0_
100
AcDbLine
 10
141.7206380532916
 20
441.9039671942896
 30
0.0
 11
-43.27936194672952
 21
441.9039671942896
 31
0.0
  0
CIRCLE
  5
C78D
330
1F
100
AcDbEntity
  8
_0-0_
100
AcDbCircle
 10
-21.25549278967105
 20
458.6325452842893
 30
0.0
 40
10.0
  0
CIRCLE
  5
C78E
330
1F
100
AcDbEntity
  8
_0-0_
100
AcDbCircle
 10
-15.25549278967105
 20
458.6325452842893
 30
0.0
 40
3.999999999999985
  0
LINE
  5
C78F
330
1F
100
AcDbEntity
  8
_0-0_
100
AcDbLine
 10
-15.25549278967105
 20
462.6325452842893
 30
0.0
 11
-21.25549278967105
 21
462.6325452842893
 31
0.0
  0
LINE
  5
C790
330
1F
100
AcDbEntity
  8
_0-0_
100
AcDbLine
 10
-15.25549278967105
 20
454.6325452842893
 30
0.0
 11
-21.25549278967105
 21
454.6325452842893
 31
0.0
  0
ARC
  5
C791
330
1F
100
AcDbEntity
  8
_0-0_
100
AcDbCircle
 10
-21.25549278967105
 20
458.6325452842893
 30
0.0
 40
3.999999999999985
100
AcDbArc
 50
90.0
 51
270.0
  0
ARC
  5
C792
330
1F
100
AcDbEntity
  8
_0-0_
100
AcDbCircle
 10
-21.25549278967105
 20
458.6325452842893
 30
0.0
 40
6.299999999999954
100
AcDbArc
 50
39.41409835615232
 51
320.5859016438452
  0
ARC
  5
C793
330
1F
100
AcDbEntity
  8
_0-0_
100
AcDbCircle
 10
139.7445072105056
 20
409.0773220531572
 30
0.0
 40
2.0
100
AcDbArc
 50
0.0
 51
88.39592879725683
  0
ARC
  5
C794
330
1F
100
AcDbEntity
  8
_0-0_
100
AcDbCircle
 10
14.2445072105022
 20
413.1733331620475
 30
0.0
 40
1.5
100
AcDbArc
 50
91.50000000000273
 51
180.0000000000032
  0
LINE
  5
C795
330
1F
100
AcDbEntity
  8
_0-0_
100
AcDbLine
 10
14.20302685293359
 20
414.5937246084538
 30
0.0
 11
139.8004925441892
 21
411.0765383101968
 31
0.0
  0
ARC
  5
C796
330
1F
100
AcDbEntity
  8
_0-0_
100
AcDbCircle
 10
139.7445072105056
 20
298.1877685154218
 30
0.0
 40
2.0
100
AcDbArc
 50
271.6040712027432
 51
0.0
  0
ARC
  5
C797
330
1F
100
AcDbEntity
  8
_0-0_
100
AcDbCircle
 10
14.24450721050198
 20
294.0917574065318
 30
0.0
 40
1.5
100
AcDbArc
 50
179.9999999999967
 51
268.4999999999972
  0
LINE
  5
C798
330
1F
100
AcDbEntity
  8
_0-0_
100
AcDbLine
 10
14.20302685293359
 20
292.6713659601255
 30
0.0
 11
139.8004925441892
 21
296.1885522583821
 31
0.0
  0
LINE
  5
C799
330
1F
100
AcDbEntity
  8
_0-0_
100
AcDbLine
 10
132.7445072105058
 20
353.6325452842898
 30
0.0
 11
132.7445072105058
 21
353.7500371567341
 31
0.0
  0
LINE
  5
C79A
330
1F
100
AcDbEntity
  8
_0-0_
100
AcDbLine
 10
12.74450721050493
 20
362.6325452842898
 30
0.0
 11
122.9015689003529
 21
359.7479811065873
 31
0.0
  0
LINE
  5
C79B
330
1F
100
AcDbEntity
  8
_0-0_
100
AcDbLine
 10
12.7445072105047
 20
366.6339164542528
 30
0.0
 11
123.0062766935848
 21
363.7466104064895
 31
0.0
  0
LINE
  5
C79C
330
1F
100
AcDbEntity
  8
_0-0_
100
AcDbLine
 10
128.7445072105056
 20
353.6325452842898
 30
0.0
 11
128.7445072105056
 21
353.7500371567337
 31
0.0
  0
ARC
  5
C79D
330
1F
100
AcDbEntity
  8
_0-0_
100
AcDbCircle
 10
122.7445072105058
 20
353.7500371567337
 30
0.0
 40
10.0
100
AcDbArc
 50
0.0
 51
88.49999999999727
  0
ARC
  5
C79E
330
1F
100
AcDbEntity
  8
_0-0_
100
AcDbCircle
 10
122.7445072105056
 20
353.7500371567337
 30
0.0
 40
6.0
100
AcDbArc
 50
0.0
 51
88.49999999999727
  0
ARC
  5
C79F
330
1F
100
AcDbEntity
  8
_0-0_
100
AcDbCircle
 10
122.7445072105056
 20
353.5150534118454
 30
0.0
 40
6.0
100
AcDbArc
 50
271.5000000000027
 51
0.0
  0
ARC
  5
C7A0
330
1F
100
AcDbEntity
  8
_0-0_
100
AcDbCircle
 10
122.7445072105058
 20
353.5150534118454
 30
0.0
 40
10.0
100
AcDbArc
 50
271.5000000000027
 51
0.0
  0
LINE
  5
C7A1
330
1F
100
AcDbEntity
  8
_0-0_
100
AcDbLine
 10
12.74450721050448
 20
340.6311741143211
 30
0.0
 11
123.006276693585
 21
343.5184801620901
 31
0.0
  0
LINE
  5
C7A2
330
1F
100
AcDbEntity
  8
_0-0_
100
AcDbLine
 10
12.7445072105047
 20
344.6325452842846
 30
0.0
 11
122.9015689003529
 21
347.5171094619923
 31
0.0
  0
ARC
  5
C7A3
330
1F
100
AcDbEntity
  8
_0-0_
100
AcDbCircle
 10
13.74450721050448
 20
341.6577028283811
 30
0.0
 40
1.0
100
AcDbArc
 50
179.9999999999967
 51
271.5000000000027
  0
ARC
  5
C7A4
330
1F
100
AcDbEntity
  8
_0-0_
100
AcDbCircle
 10
13.74450721050448
 20
343.6583884133631
 30
0.0
 40
1.0
100
AcDbArc
 50
91.50000000000273
 51
179.9999999999967
  0
ARC
  5
C7A5
330
1F
100
AcDbEntity
  8
_0-0_
100
AcDbCircle
 10
13.74450721050493
 20
363.6067021552112
 30
0.0
 40
1.0
100
AcDbArc
 50
180.0
 51
268.4999999999972
  0
ARC
  5
C7A6
330
1F
100
AcDbEntity
  8
_0-0_
100
AcDbCircle
 10
13.74450721050493
 20
365.607387740193
 30
0.0
 40
1.0
100
AcDbArc
 50
88.49999999999727
 51
180.0
  0
LINE
  5
C7A7
330
1F
100
AcDbEntity
  8
_0-0_
100
AcDbLine
 10
38.74450721050448
 20
350.6712420351539
 30
0.0
 11
38.74450721050448
 21
356.5938485334255
 31
0.0
  0
ARC
  5
C7A8
330
1F
100
AcDbEntity
  8
_0-0_
100
AcDbCircle
 10
33.24450721050448
 20
350.6712420351539
 30
0.0
 40
5.5
100
AcDbArc
 50
271.5000000000027
 51
0.0
  0
ARC
  5
C7A9
330
1F
100
AcDbEntity
  8
_0-0_
100
AcDbCircle
 10
33.24450721050448
 20
356.5938485334255
 30
0.0
 40
5.5
100
AcDbArc
 50
0.0
 51
88.49999999999727
  0
ARC
  5
C7AA
330
1F
100
AcDbEntity
  8
_0-0_
100
AcDbCircle
 10
205.6486094547429
 20
353.6325452842898
 30
0.0
 40
203.0
100
AcDbArc
 50
188.8510087490072
 51
195.1938047614968
  0
ARC
  5
C7AB
330
1F
100
AcDbEntity
  8
_0-0_
100
AcDbCircle
 10
205.6486094547429
 20
353.6325452842898
 30
0.0
 40
203.0
100
AcDbArc
 50
164.8061952385032
 51
171.1489912509928
  0
ARC
  5
C7AC
330
1F
100
AcDbEntity
  8
_0-0_
100
AcDbCircle
 10
4.077884081821594
 20
322.2439697728987
 30
0.0
 40
1.0
100
AcDbArc
 50
8.851008749007174
 51
88.99999999999824
  0
ARC
  5
C7AD
330
1F
100
AcDbEntity
  8
_0-0_
100
AcDbCircle
 10
4.077884081821594
 20
385.0211207956807
 30
0.0
 40
1.0
100
AcDbArc
 50
271.0000000000018
 51
351.1489912509928
  0
ARC
  5
C7AE
330
1F
100
AcDbEntity
  8
_0-0_
100
AcDbCircle
 10
265.7730743221112
 20
353.6325452842898
 30
0.0
 40
260.6556256738741
100
AcDbArc
 50
173.2940658288937
 51
186.7059341711062
  0
LINE
  5
C7AF
330
1F
100
AcDbEntity
  8
_0-0_
100
AcDbLine
 10
-41.72601741077301
 20
324.0436321754614
 30
0.0
 11
6.90070833450818
 21
323.194849520331
 31
0.0
  0
LINE
  5
C7B0
330
1F
100
AcDbEntity
  8
_0-0_
100
AcDbLine
 10
-41.72601741077301
 20
383.2214583931179
 30
0.0
 11
6.90070833450818
 21
384.0702410482484
 31
0.0
  0
LINE
  5
C7B1
330
1F
100
AcDbEntity
  8
_0-0_
100
AcDbLine
 10
10.74450721050471
 20
291.6325452842898
 30
0.0
 11
12.74450721050448
 21
291.6325452842898
 31
0.0
  0
ARC
  5
C7B2
330
1F
100
AcDbEntity
  8
_0-0_
100
AcDbCircle
 10
10.74450721050471
 20
292.6325452842898
 30
0.0
 40
1.0
100
AcDbArc
 50
180.0
 51
270.0
  0
LINE
  5
C7B3
330
1F
100
AcDbEntity
  8
_0-0_
100
AcDbLine
 10
9.74450721050448
 20
414.6325452842898
 30
0.0
 11
9.74450721050448
 21
292.6325452842898
 31
0.0
  0
ARC
  5
C7B4
330
1F
100
AcDbEntity
  8
_0-0_
100
AcDbCircle
 10
10.74450721050471
 20
414.6325452842898
 30
0.0
 40
1.0
100
AcDbArc
 50
90.0
 51
180.0
  0
LINE
  5
C7B5
330
1F
100
AcDbEntity
  8
_0-0_
100
AcDbLine
 10
12.74450721050448
 20
291.6325452842898
 30
0.0
 11
12.74450721050448
 21
415.6325452842898
 31
0.0
  0
LINE
  5
C7B6
330
1F
100
AcDbEntity
  8
_0-0_
100
AcDbLine
 10
10.74450721050471
 20
415.6325452842898
 30
0.0
 11
12.74450721050448
 21
415.6325452842898
 31
0.0
  0
LINE
  5
C7B7
330
1F
100
AcDbEntity
  8
_0-0_
100
AcDbLine
 10
-12.92786565540814
 20
413.6325452842897
 30
0.0
 11
-13.16062438307176
 21
417.1102504230106
 31
0.0
  0
LINE
  5
C7B8
330
1F
100
AcDbEntity
  8
_0-0_
100
AcDbLine
 10
-13.16062438307176
 20
417.1102504230106
 30
0.0
 11
-13.85182830990493
 21
420.4822872508953
 31
0.0
  0
LINE
  5
C7B9
330
1F
100
AcDbEntity
  8
_0-0_
100
AcDbLine
 10
-13.85182830990493
 20
420.4822872508953
 30
0.0
 11
-14.98047555435619
 21
423.6461981352613
 31
0.0
  0
LINE
  5
C7BA
330
1F
100
AcDbEntity
  8
_0-0_
100
AcDbLine
 10
-14.98047555435619
 20
423.6461981352613
 30
0.0
 11
-16.51227274102598
 21
426.5058492449034
 31
0.0
  0
LINE
  5
C7BB
330
1F
100
AcDbEntity
  8
_0-0_
100
AcDbLine
 10
-16.51227274102598
 20
426.5058492449034
 30
0.0
 11
-18.400676987525
 21
428.9743515279081
 31
0.0
  0
LINE
  5
C7BC
330
1F
100
AcDbEntity
  8
_0-0_
100
AcDbLine
 10
-18.400676987525
 20
428.9743515279081
 30
0.0
 11
-20.58831008640118
 21
430.9767007915293
 31
0.0
  0
LINE
  5
C7BD
330
1F
100
AcDbEntity
  8
_0-0_
100
AcDbLine
 10
-20.58831008640118
 20
430.9767007915293
 30
0.0
 11
-23.00870191294143
 21
432.4520566666292
 31
0.0
  0
LINE
  5
C7BE
330
1F
100
AcDbEntity
  8
_0-0_
100
AcDbLine
 10
-23.00870191294143
 20
432.4520566666292
 30
0.0
 11
-25.58831008627317
 21
433.3555912115088
 31
0.0
  0
LINE
  5
C7BF
330
1F
100
AcDbEntity
  8
_0-0_
100
AcDbLine
 10
-25.58831008627317
 20
433.3555912115088
 30
0.0
 11
-28.2487545173949
 21
433.6598509862328
 31
0.0
  0
LINE
  5
C7C0
330
1F
100
AcDbEntity
  8
_0-0_
100
AcDbLine
 10
-28.2487545173949
 20
433.6598509862328
 30
0.0
 11
-30.90919894851595
 21
433.3555912115088
 31
0.0
  0
LINE
  5
C7C1
330
1F
100
AcDbEntity
  8
_0-0_
100
AcDbLine
 10
-30.90919894851595
 20
433.3555912115088
 30
0.0
 11
-33.48880712184791
 21
432.4520566666292
 31
0.0
  0
LINE
  5
C7C2
330
1F
100
AcDbEntity
  8
_0-0_
100
AcDbLine
 10
-33.48880712184791
 20
432.4520566666292
 30
0.0
 11
-35.90919894838817
 21
430.9767007915293
 31
0.0
  0
LINE
  5
C7C3
330
1F
100
AcDbEntity
  8
_0-0_
100
AcDbLine
 10
-35.90919894838817
 20
430.9767007915293
 30
0.0
 11
-38.09683204726389
 21
428.9743515279081
 31
0.0
  0
LINE
  5
C7C4
330
1F
100
AcDbEntity
  8
_0-0_
100
AcDbLine
 10
-38.09683204726389
 20
428.9743515279081
 30
0.0
 11
-39.98523629376291
 21
426.5058492449034
 31
0.0
  0
LINE
  5
C7C5
330
1F
100
AcDbEntity
  8
_0-0_
100
AcDbLine
 10
-39.98523629376291
 20
426.5058492449034
 30
0.0
 11
-41.51703348043315
 21
423.6461981352613
 31
0.0
  0
LINE
  5
C7C6
330
1F
100
AcDbEntity
  8
_0-0_
100
AcDbLine
 10
-41.51703348043315
 20
423.6461981352613
 30
0.0
 11
-42.64568072488441
 21
420.4822872508953
 31
0.0
  0
LINE
  5
C7C7
330
1F
100
AcDbEntity
  8
_0-0_
100
AcDbLine
 10
-42.64568072488441
 20
420.4822872508953
 30
0.0
 11
-43.33688465171758
 21
417.1102504230106
 31
0.0
  0
LINE
  5
C7C8
330
1F
100
AcDbEntity
  8
_0-0_
100
AcDbLine
 10
-43.33688465171758
 20
417.1102504230106
 30
0.0
 11
-43.5696433793812
 21
413.6325452842897
 31
0.0
  0
LINE
  5
C7C9
330
1F
100
AcDbEntity
  8
_0-0_
100
AcDbLine
 10
-43.5696433793812
 20
413.6325452842897
 30
0.0
 11
-43.33688465171758
 21
410.1548401455686
 31
0.0
  0
LINE
  5
C7CA
330
1F
100
AcDbEntity
  8
_0-0_
100
AcDbLine
 10
-43.33688465171758
 20
410.1548401455686
 30
0.0
 11
-42.64568072488441
 21
406.782803317684
 31
0.0
  0
LINE
  5
C7CB
330
1F
100
AcDbEntity
  8
_0-0_
100
AcDbLine
 10
-42.64568072488441
 20
406.782803317684
 30
0.0
 11
-41.51703348043315
 21
403.6188924333178
 31
0.0
  0
LINE
  5
C7CC
330
1F
100
AcDbEntity
  8
_0-0_
100
AcDbLine
 10
-41.51703348043315
 20
403.6188924333178
 30
0.0
 11
-39.98523629376291
 21
400.7592413236757
 31
0.0
  0
LINE
  5
C7CD
330
1F
100
AcDbEntity
  8
_0-0_
100
AcDbLine
 10
-39.98523629376291
 20
400.7592413236757
 30
0.0
 11
-38.09683204726411
 21
398.2907390406708
 31
0.0
  0
LINE
  5
C7CE
330
1F
100
AcDbEntity
  8
_0-0_
100
AcDbLine
 10
-38.09683204726411
 20
398.2907390406708
 30
0.0
 11
-35.90919894838817
 21
396.2883897770498
 31
0.0
  0
LINE
  5
C7CF
330
1F
100
AcDbEntity
  8
_0-0_
100
AcDbLine
 10
-35.90919894838817
 20
396.2883897770498
 30
0.0
 11
-33.48880712184791
 21
394.8130339019499
 31
0.0
  0
LINE
  5
C7D0
330
1F
100
AcDbEntity
  8
_0-0_
100
AcDbLine
 10
-33.48880712184791
 20
394.8130339019499
 30
0.0
 11
-30.90919894851663
 21
393.9094993570702
 31
0.0
  0
LINE
  5
C7D1
330
1F
100
AcDbEntity
  8
_0-0_
100
AcDbLine
 10
-30.90919894851663
 20
393.9094993570702
 30
0.0
 11
-28.2487545173949
 21
393.6052395823463
 31
0.0
  0
LINE
  5
C7D2
330
1F
100
AcDbEntity
  8
_0-0_
100
AcDbLine
 10
-28.2487545173949
 20
393.6052395823463
 30
0.0
 11
-25.58831008627317
 21
393.9094993570702
 31
0.0
  0
LINE
  5
C7D3
330
1F
100
AcDbEntity
  8
_0-0_
100
AcDbLine
 10
-25.58831008627317
 20
393.9094993570702
 30
0.0
 11
-23.00870191294143
 21
394.8130339019499
 31
0.0
  0
LINE
  5
C7D4
330
1F
100
AcDbEntity
  8
_0-0_
100
AcDbLine
 10
-23.00870191294143
 20
394.8130339019499
 30
0.0
 11
-20.58831008640118
 21
396.2883897770498
 31
0.0
  0
LINE
  5
C7D5
330
1F
100
AcDbEntity
  8
_0-0_
100
AcDbLine
 10
-20.58831008640118
 20
396.2883897770498
 30
0.0
 11
-18.40067698752546
 21
398.2907390406708
 31
0.0
  0
LINE
  5
C7D6
330
1F
100
AcDbEntity
  8
_0-0_
100
AcDbLine
 10
-18.40067698752546
 20
398.2907390406708
 30
0.0
 11
-16.51227274102643
 21
400.7592413236757
 31
0.0
  0
LINE
  5
C7D7
330
1F
100
AcDbEntity
  8
_0-0_
100
AcDbLine
 10
-16.51227274102643
 20
400.7592413236757
 30
0.0
 11
-14.98047555435619
 21
403.6188924333178
 31
0.0
  0
LINE
  5
C7D8
330
1F
100
AcDbEntity
  8
_0-0_
100
AcDbLine
 10
-14.98047555435619
 20
403.6188924333178
 30
0.0
 11
-13.85182830990493
 21
406.7828033176838
 31
0.0
  0
LINE
  5
C7D9
330
1F
100
AcDbEntity
  8
_0-0_
100
AcDbLine
 10
-13.85182830990493
 20
406.7828033176838
 30
0.0
 11
-13.16062438307176
 21
410.1548401455684
 31
0.0
  0
LINE
  5
C7DA
330
1F
100
AcDbEntity
  8
_0-0_
100
AcDbLine
 10
-13.16062438307176
 20
410.1548401455684
 30
0.0
 11
-12.92786565540814
 21
413.6325452842893
 31
0.0
  0
LINE
  5
C7DB
330
1F
100
AcDbEntity
  8
_0-0_
100
AcDbLine
 10
-43.27936194672974
 20
413.6325452842897
 30
0.0
 11
-43.0510132462864
 21
410.2207314420268
 31
0.0
  0
LINE
  5
C7DC
330
1F
100
AcDbEntity
  8
_0-0_
100
AcDbLine
 10
-43.0510132462864
 20
410.2207314420268
 30
0.0
 11
-42.37290540467052
 21
406.9125838368997
 31
0.0
  0
LINE
  5
C7DD
330
1F
100
AcDbEntity
  8
_0-0_
100
AcDbLine
 10
-42.37290540467052
 20
406.9125838368997
 30
0.0
 11
-41.26564238551009
 21
403.8086188598879
 31
0.0
  0
LINE
  5
C7DE
330
1F
100
AcDbEntity
  8
_0-0_
100
AcDbLine
 10
-41.26564238551009
 20
403.8086188598879
 30
0.0
 11
-39.76286781533963
 21
401.0031489161337
 31
0.0
  0
LINE
  5
C7DF
330
1F
100
AcDbEntity
  8
_0-0_
100
AcDbLine
 10
-39.76286781533963
 20
401.0031489161337
 30
0.0
 11
-37.91024273903395
 21
398.5814167902438
 31
0.0
  0
LINE
  5
C7E0
330
1F
100
AcDbEntity
  8
_0-0_
100
AcDbLine
 10
-37.91024273903395
 20
398.5814167902438
 30
0.0
 11
-35.7640582320621
 21
396.617005587407
 31
0.0
  0
LINE
  5
C7E1
330
1F
100
AcDbEntity
  8
_0-0_
100
AcDbLine
 10
-35.7640582320621
 20
396.617005587407
 30
0.0
 11
-33.38952502464781
 21
395.1696029479811
 31
0.0
  0
LINE
  5
C7E2
330
1F
100
AcDbEntity
  8
_0-0_
100
AcDbLine
 10
-33.38952502464781
 20
395.1696029479811
 30
0.0
 11
-30.85879210672579
 21
394.2831874687447
 31
0.0
  0
LINE
  5
C7E3
330
1F
100
AcDbEntity
  8
_0-0_
100
AcDbLine
 10
-30.85879210672579
 20
394.2831874687447
 30
0.0
 11
-28.2487545173949
 21
393.9846924354856
 31
0.0
  0
LINE
  5
C7E4
330
1F
100
AcDbEntity
  8
_0-0_
100
AcDbLine
 10
-28.2487545173949
 20
393.9846924354856
 30
0.0
 11
-25.63871692806379
 21
394.2831874687447
 31
0.0
  0
LINE
  5
C7E5
330
1F
100
AcDbEntity
  8
_0-0_
100
AcDbLine
 10
-25.63871692806379
 20
394.2831874687447
 30
0.0
 11
-23.10798401014176
 21
395.1696029479811
 31
0.0
  0
LINE
  5
C7E6
330
1F
100
AcDbEntity
  8
_0-0_
100
AcDbLine
 10
-23.10798401014176
 20
395.1696029479811
 30
0.0
 11
-20.73345080272702
 21
396.617005587407
 31
0.0
  0
LINE
  5
C7E7
330
1F
100
AcDbEntity
  8
_0-0_
100
AcDbLine
 10
-20.73345080272702
 20
396.617005587407
 30
0.0
 11
-18.58726629575562
 21
398.5814167902438
 31
0.0
  0
LINE
  5
C7E8
330
1F
100
AcDbEntity
  8
_0-0_
100
AcDbLine
 10
-18.58726629575562
 20
398.5814167902438
 30
0.0
 11
-16.73464121944994
 21
401.0031489161337
 31
0.0
  0
LINE
  5
C7E9
330
1F
100
AcDbEntity
  8
_0-0_
100
AcDbLine
 10
-16.73464121944994
 20
401.0031489161337
 30
0.0
 11
-15.23186664927948
 21
403.8086188598875
 31
0.0
  0
LINE
  5
C7EA
330
1F
100
AcDbEntity
  8
_0-0_
100
AcDbLine
 10
-15.23186664927948
 20
403.8086188598875
 30
0.0
 11
-14.12460363011905
 21
406.9125838368997
 31
0.0
  0
LINE
  5
C7EB
330
1F
100
AcDbEntity
  8
_0-0_
100
AcDbLine
 10
-14.12460363011905
 20
406.9125838368997
 30
0.0
 11
-13.44649578850294
 21
410.2207314420268
 31
0.0
  0
LINE
  5
C7EC
330
1F
100
AcDbEntity
  8
_0-0_
100
AcDbLine
 10
-13.44649578850294
 20
410.2207314420268
 30
0.0
 11
-13.21814708805982
 21
413.6325452842897
 31
0.0
  0
LINE
  5
C7ED
330
1F
100
AcDbEntity
  8
_0-0_
100
AcDbLine
 10
-13.21814708805982
 20
413.6325452842897
 30
0.0
 11
-13.44649578850294
 21
417.044359126552
 31
0.0
  0
LINE
  5
C7EE
330
1F
100
AcDbEntity
  8
_0-0_
100
AcDbLine
 10
-13.44649578850294
 20
417.044359126552
 30
0.0
 11
-14.12460363011905
 21
420.3525067316788
 31
0.0
  0
LINE
  5
C7EF
330
1F
100
AcDbEntity
  8
_0-0_
100
AcDbLine
 10
-14.12460363011905
 20
420.3525067316788
 30
0.0
 11
-15.23186664927948
 21
423.4564717086914
 31
0.0
  0
LINE
  5
C7F0
330
1F
100
AcDbEntity
  8
_0-0_
100
AcDbLine
 10
-15.23186664927948
 20
423.4564717086914
 30
0.0
 11
-16.73464121944994
 21
426.2619416524448
 31
0.0
  0
LINE
  5
C7F1
330
1F
100
AcDbEntity
  8
_0-0_
100
AcDbLine
 10
-16.73464121944994
 20
426.2619416524448
 30
0.0
 11
-18.58726629575562
 21
428.6836737783349
 31
0.0
  0
LINE
  5
C7F2
330
1F
100
AcDbEntity
  8
_0-0_
100
AcDbLine
 10
-18.58726629575562
 20
428.6836737783349
 30
0.0
 11
-20.73345080272702
 21
430.6480849811721
 31
0.0
  0
LINE
  5
C7F3
330
1F
100
AcDbEntity
  8
_0-0_
100
AcDbLine
 10
-20.73345080272702
 20
430.6480849811721
 30
0.0
 11
-23.10798401014131
 21
432.0954876205981
 31
0.0
  0
LINE
  5
C7F4
330
1F
100
AcDbEntity
  8
_0-0_
100
AcDbLine
 10
-23.10798401014131
 20
432.0954876205981
 30
0.0
 11
-25.63871692806379
 21
432.9819030998346
 31
0.0
  0
LINE
  5
C7F5
330
1F
100
AcDbEntity
  8
_0-0_
100
AcDbLine
 10
-25.63871692806379
 20
432.9819030998346
 30
0.0
 11
-28.2487545173949
 21
433.2803981330934
 31
0.0
  0
LINE
  5
C7F6
330
1F
100
AcDbEntity
  8
_0-0_
100
AcDbLine
 10
-28.2487545173949
 20
433.2803981330934
 30
0.0
 11
-30.85879210672579
 21
432.9819030998346
 31
0.0
  0
LINE
  5
C7F7
330
1F
100
AcDbEntity
  8
_0-0_
100
AcDbLine
 10
-30.85879210672579
 20
432.9819030998346
 30
0.0
 11
-33.38952502464781
 21
432.0954876205981
 31
0.0
  0
LINE
  5
C7F8
330
1F
100
AcDbEntity
  8
_0-0_
100
AcDbLine
 10
-33.38952502464781
 20
432.0954876205981
 30
0.0
 11
-35.7640582320621
 21
430.6480849811721
 31
0.0
  0
LINE
  5
C7F9
330
1F
100
AcDbEntity
  8
_0-0_
100
AcDbLine
 10
-35.7640582320621
 20
430.6480849811721
 30
0.0
 11
-37.91024273903395
 21
428.6836737783353
 31
0.0
  0
LINE
  5
C7FA
330
1F
100
AcDbEntity
  8
_0-0_
100
AcDbLine
 10
-37.91024273903395
 20
428.6836737783353
 30
0.0
 11
-39.76286781533963
 21
426.2619416524448
 31
0.0
  0
LINE
  5
C7FB
330
1F
100
AcDbEntity
  8
_0-0_
100
AcDbLine
 10
-39.76286781533963
 20
426.2619416524448
 30
0.0
 11
-41.26564238551009
 21
423.4564717086918
 31
0.0
  0
LINE
  5
C7FC
330
1F
100
AcDbEntity
  8
_0-0_
100
AcDbLine
 10
-41.26564238551009
 20
423.4564717086918
 30
0.0
 11
-42.37290540467052
 21
420.3525067316788
 31
0.0
  0
LINE
  5
C7FD
330
1F
100
AcDbEntity
  8
_0-0_
100
AcDbLine
 10
-42.37290540467052
 20
420.3525067316788
 30
0.0
 11
-43.0510132462864
 21
417.0443591265525
 31
0.0
  0
LINE
  5
C7FE
330
1F
100
AcDbEntity
  8
_0-0_
100
AcDbLine
 10
-43.0510132462864
 20
417.0443591265525
 30
0.0
 11
-43.27936194672974
 21
413.6325452842897
 31
0.0
  0
LINE
  5
C7FF
330
1F
100
AcDbEntity
  8
_0-0_
100
AcDbLine
 10
-15.9986692885152
 20
413.6325452842897
 30
0.0
 11
-16.19942369112414
 21
416.5895469876828
 31
0.0
  0
LINE
  5
C800
330
1F
100
AcDbEntity
  8
_0-0_
100
AcDbLine
 10
-16.19942369112414
 20
416.5895469876828
 30
0.0
 11
-16.79558707801516
 21
419.4567016906328
 31
0.0
  0
LINE
  5
C801
330
1F
100
AcDbEntity
  8
_0-0_
100
AcDbLine
 10
-16.79558707801516
 20
419.4567016906328
 30
0.0
 11
-17.76904532635058
 21
422.1468923483419
 31
0.0
  0
LINE
  5
C802
330
1F
100
AcDbEntity
  8
_0-0_
100
AcDbLine
 10
-17.76904532635058
 20
422.1468923483419
 30
0.0
 11
-19.09022039984802
 21
424.5783788789772
 31
0.0
  0
LINE
  5
C803
330
1F
100
AcDbEntity
  8
_0-0_
100
AcDbLine
 10
-19.09022039984802
 20
424.5783788789772
 30
0.0
 11
-20.71896906244638
 21
426.6772817946969
 31
0.0
  0
LINE
  5
C804
330
1F
100
AcDbEntity
  8
_0-0_
100
AcDbLine
 10
-20.71896906244638
 20
426.6772817946969
 30
0.0
 11
-22.60580261021983
 21
428.3798269925032
 31
0.0
  0
LINE
  5
C805
330
1F
100
AcDbEntity
  8
_0-0_
100
AcDbLine
 10
-22.60580261021983
 20
428.3798269925032
 30
0.0
 11
-24.69339056060198
 21
429.6342834980901
 31
0.0
  0
LINE
  5
C806
330
1F
100
AcDbEntity
  8
_0-0_
100
AcDbLine
 10
-24.69339056060198
 20
429.6342834980901
 30
0.0
 11
-26.91830261009136
 21
430.4025352853204
 31
0.0
  0
LINE
  5
C807
330
1F
100
AcDbEntity
  8
_0-0_
100
AcDbLine
 10
-26.91830261009136
 20
430.4025352853204
 30
0.0
 11
-29.21293593192445
 21
430.6612394123947
 31
0.0
  0
LINE
  5
C808
330
1F
100
AcDbEntity
  8
_0-0_
100
AcDbLine
 10
-29.21293593192445
 20
430.6612394123947
 30
0.0
 11
-31.50756925375731
 21
430.4025352853204
 31
0.0
  0
LINE
  5
C809
330
1F
100
AcDbEntity
  8
_0-0_
100
AcDbLine
 10
-31.50756925375731
 20
430.4025352853204
 30
0.0
 11
-33.73248130324714
 21
429.6342834980901
 31
0.0
  0
LINE
  5
C80A
330
1F
100
AcDbEntity
  8
_0-0_
100
AcDbLine
 10
-33.73248130324714
 20
429.6342834980901
 30
0.0
 11
-35.82006925362885
 21
428.3798269925032
 31
0.0
  0
LINE
  5
C80B
330
1F
100
AcDbEntity
  8
_0-0_
100
AcDbLine
 10
-35.82006925362885
 20
428.3798269925032
 30
0.0
 11
-37.70690280140207
 21
426.6772817946969
 31
0.0
  0
LINE
  5
C80C
330
1F
100
AcDbEntity
  8
_0-0_
100
AcDbLine
 10
-37.70690280140207
 20
426.6772817946969
 30
0.0
 11
-39.33565146400065
 21
424.5783788789774
 31
0.0
  0
LINE
  5
C80D
330
1F
100
AcDbEntity
  8
_0-0_
100
AcDbLine
 10
-39.33565146400065
 20
424.5783788789774
 30
0.0
 11
-40.65682653749831
 21
422.1468923483421
 31
0.0
  0
LINE
  5
C80E
330
1F
100
AcDbEntity
  8
_0-0_
100
AcDbLine
 10
-40.65682653749831
 20
422.1468923483421
 30
0.0
 11
-41.63028478583373
 21
419.4567016906328
 31
0.0
  0
LINE
  5
C80F
330
1F
100
AcDbEntity
  8
_0-0_
100
AcDbLine
 10
-41.63028478583373
 20
419.4567016906328
 30
0.0
 11
-42.22644817272498
 21
416.5895469876828
 31
0.0
  0
LINE
  5
C810
330
1F
100
AcDbEntity
  8
_0-0_
100
AcDbLine
 10
-42.22644817272498
 20
416.5895469876828
 30
0.0
 11
-42.42720257533392
 21
413.6325452842897
 31
0.0
  0
LINE
  5
C811
330
1F
100
AcDbEntity
  8
_0-0_
100
AcDbLine
 10
-42.42720257533392
 20
413.6325452842897
 30
0.0
 11
-42.22644817272498
 21
410.6755435808966
 31
0.0
  0
LINE
  5
C812
330
1F
100
AcDbEntity
  8
_0-0_
100
AcDbLine
 10
-42.22644817272498
 20
410.6755435808966
 30
0.0
 11
-41.63028478583373
 21
407.8083888779461
 31
0.0
  0
LINE
  5
C813
330
1F
100
AcDbEntity
  8
_0-0_
100
AcDbLine
 10
-41.63028478583373
 20
407.8083888779461
 30
0.0
 11
-40.65682653749831
 21
405.1181982202372
 31
0.0
  0
LINE
  5
C814
330
1F
100
AcDbEntity
  8
_0-0_
100
AcDbLine
 10
-40.65682653749831
 20
405.1181982202372
 30
0.0
 11
-39.33565146400065
 21
402.6867116896019
 31
0.0
  0
LINE
  5
C815
330
1F
100
AcDbEntity
  8
_0-0_
100
AcDbLine
 10
-39.33565146400065
 20
402.6867116896019
 30
0.0
 11
-37.70690280140229
 21
400.5878087738818
 31
0.0
  0
LINE
  5
C816
330
1F
100
AcDbEntity
  8
_0-0_
100
AcDbLine
 10
-37.70690280140229
 20
400.5878087738818
 30
0.0
 11
-35.8200692536293
 21
398.8852635760759
 31
0.0
  0
LINE
  5
C817
330
1F
100
AcDbEntity
  8
_0-0_
100
AcDbLine
 10
-35.8200692536293
 20
398.8852635760759
 30
0.0
 11
-33.73248130324714
 21
397.6308070704888
 31
0.0
  0
LINE
  5
C818
330
1F
100
AcDbEntity
  8
_0-0_
100
AcDbLine
 10
-33.73248130324714
 20
397.6308070704888
 30
0.0
 11
-31.50756925375731
 21
396.8625552832584
 31
0.0
  0
LINE
  5
C819
330
1F
100
AcDbEntity
  8
_0-0_
100
AcDbLine
 10
-31.50756925375731
 20
396.8625552832584
 30
0.0
 11
-29.21293593192445
 21
396.6038511561846
 31
0.0
  0
LINE
  5
C81A
330
1F
100
AcDbEntity
  8
_0-0_
100
AcDbLine
 10
-29.21293593192445
 20
396.6038511561846
 30
0.0
 11
-26.91830261009159
 21
396.8625552832584
 31
0.0
  0
LINE
  5
C81B
330
1F
100
AcDbEntity
  8
_0-0_
100
AcDbLine
 10
-26.91830261009159
 20
396.8625552832584
 30
0.0
 11
-24.69339056060198
 21
397.6308070704888
 31
0.0
  0
LINE
  5
C81C
330
1F
100
AcDbEntity
  8
_0-0_
100
AcDbLine
 10
-24.69339056060198
 20
397.6308070704888
 30
0.0
 11
-22.60580261021983
 21
398.8852635760759
 31
0.0
  0
LINE
  5
C81D
330
1F
100
AcDbEntity
  8
_0-0_
100
AcDbLine
 10
-22.60580261021983
 20
398.8852635760759
 30
0.0
 11
-20.71896906244706
 21
400.5878087738818
 31
0.0
  0
LINE
  5
C81E
330
1F
100
AcDbEntity
  8
_0-0_
100
AcDbLine
 10
-20.71896906244706
 20
400.5878087738818
 30
0.0
 11
-19.09022039984802
 21
402.6867116896019
 31
0.0
  0
LINE
  5
C81F
330
1F
100
AcDbEntity
  8
_0-0_
100
AcDbLine
 10
-19.09022039984802
 20
402.6867116896019
 30
0.0
 11
-17.76904532635058
 21
405.1181982202369
 31
0.0
  0
LINE
  5
C820
330
1F
100
AcDbEntity
  8
_0-0_
100
AcDbLine
 10
-17.76904532635058
 20
405.1181982202369
 30
0.0
 11
-16.79558707801516
 21
407.8083888779461
 31
0.0
  0
LINE
  5
C821
330
1F
100
AcDbEntity
  8
_0-0_
100
AcDbLine
 10
-16.79558707801516
 20
407.8083888779461
 30
0.0
 11
-16.19942369112414
 21
410.6755435808963
 31
0.0
  0
LINE
  5
C822
330
1F
100
AcDbEntity
  8
_0-0_
100
AcDbLine
 10
-16.19942369112414
 20
410.6755435808963
 30
0.0
 11
-15.9986692885152
 21
413.6325452842897
 31
0.0
  0
LINE
  5
C823
330
1F
100
AcDbEntity
  8
_0-0_
100
AcDbLine
 10
-49.32066497645474
 20
426.1325452842897
 30
0.0
 11
-52.8685328868778
 21
426.1325452842897
 31
0.0
  0
LINE
  5
C824
330
1F
100
AcDbEntity
  8
_0-0_
100
AcDbLine
 10
-52.8685328868778
 20
426.1325452842897
 30
0.0
 11
-51.17404815166969
 21
437.6332836521442
 31
0.0
  0
LINE
  5
C825
330
1F
100
AcDbEntity
  8
_0-0_
100
AcDbLine
 10
-54.45771850439746
 20
401.1325452842897
 30
0.0
 11
-54.45771850439746
 21
432.141935020586
 31
0.0
  0
LINE
  5
C826
330
1F
100
AcDbEntity
  8
_0-0_
100
AcDbLine
 10
-54.45771850439746
 20
432.141935020586
 30
0.0
 11
-52.09368148442354
 21
432.141935020586
 31
0.0
  0
LINE
  5
C827
330
1F
100
AcDbEntity
  8
_0-0_
100
AcDbLine
 10
-54.13115855898195
 20
269.6318069164356
 30
0.0
 11
-58.34339304806121
 21
294.6318069161637
 31
0.0
  0
LINE
  5
C828
330
1F
100
AcDbEntity
  8
_0-0_
100
AcDbLine
 10
-51.17404815166969
 20
269.6318069164356
 30
0.0
 11
-55.38628264079512
 21
294.6318069164356
 31
0.0
  0
LINE
  5
C829
330
1F
100
AcDbEntity
  8
_0-0_
100
AcDbLine
 10
-43.27936194672974
 20
265.3611233740894
 30
0.0
 11
-43.27936194672974
 21
269.6318069164356
 31
0.0
  0
LINE
  5
C82A
330
1F
100
AcDbEntity
  8
_0-0_
100
AcDbLine
 10
-43.27936194672952
 20
437.6332836521442
 30
0.0
 11
-43.27936194672952
 21
441.9039671942896
 31
0.0
  0
LINE
  5
C82B
330
1F
100
AcDbEntity
  8
_0-0_
100
AcDbLine
 10
-58.34339304806121
 20
343.1961686610843
 30
0.0
 11
-53.75185446174691
 21
343.1961686610843
 31
0.0
  0
LINE
  5
C82C
330
1F
100
AcDbEntity
  8
_0-0_
100
AcDbLine
 10
-58.34339304806121
 20
364.0689219074952
 30
0.0
 11
-53.75185446174691
 21
364.0689219074952
 31
0.0
  0
LINE
  5
C82D
330
1F
100
AcDbEntity
  8
_0-0_
100
AcDbLine
 10
-55.38628264079512
 20
364.0689219074952
 30
0.0
 11
-55.38628264079512
 21
401.1325452842897
 31
0.0
  0
LINE
  5
C82E
330
1F
100
AcDbEntity
  8
_0-0_
100
AcDbLine
 10
-49.32066497645474
 20
401.1325452842897
 30
0.0
 11
-58.34339304806121
 21
401.1325452842897
 31
0.0
  0
LINE
  5
C82F
330
1F
100
AcDbEntity
  8
_0-0_
100
AcDbLine
 10
-58.34339304806121
 20
294.6318069161637
 30
0.0
 11
-58.34339304806121
 21
401.1325452842897
 31
0.0
  0
LINE
  5
C830
330
1F
100
AcDbEntity
  8
_0-0_
100
AcDbLine
 10
-55.38628264079512
 20
294.6318069164356
 30
0.0
 11
-55.38628264079512
 21
343.1961686610843
 31
0.0
  0
LINE
  5
C831
330
1F
100
AcDbEntity
  8
_0-0_
100
AcDbLine
 10
-51.17404815166969
 20
437.6332836521442
 30
0.0
 11
-41.73864289602966
 21
437.6332836521442
 31
0.0
  0
LINE
  5
C832
330
1F
100
AcDbEntity
  8
_0-0_
100
AcDbLine
 10
-54.13115855898195
 20
269.6318069164356
 30
0.0
 11
-41.73864289602966
 21
269.6318069164356
 31
0.0
  0
LINE
  5
C833
330
1F
100
AcDbEntity
  8
_0-0_
100
AcDbLine
 10
-53.75185446174691
 20
343.1961686610843
 30
0.0
 11
-53.75185446174691
 21
364.0689219074952
 31
0.0
  0
LINE
  5
C834
330
1F
100
AcDbEntity
  8
_0-0_
100
AcDbLine
 10
-55.72326139992492
 20
343.1961686610843
 30
0.0
 11
-55.72326139992492
 21
364.0689219074952
 31
0.0
  0
LINE
  5
C835
330
1F
100
AcDbEntity
  8
_0-0_
100
AcDbLine
 10
-54.23019587232102
 20
331.1325452842898
 30
0.0
 11
-54.23019587232102
 21
343.1961686610843
 31
0.0
  0
ARC
  5
C836
330
1F
100
AcDbEntity
  8
_0-0_
100
AcDbCircle
 10
-53.23019587232102
 20
331.1325452842898
 30
0.0
 40
1.0
100
AcDbArc
 50
180.0
 51
270.0
  0
LINE
  5
C837
330
1F
100
AcDbEntity
  8
_0-0_
100
AcDbLine
 10
-43.55761318068971
 20
330.1325452842898
 30
0.0
 11
-53.23019587232102
 21
330.1325452842898
 31
0.0
  0
ARC
  5
C838
330
1F
100
AcDbEntity
  8
_0-0_
100
AcDbCircle
 10
-43.55761318068971
 20
331.1325452842898
 30
0.0
 40
1.0
100
AcDbArc
 50
270.0
 51
0.0
  0
LINE
  5
C839
330
1F
100
AcDbEntity
  8
_0-0_
100
AcDbLine
 10
-53.23019587232102
 20
375.1325452842898
 30
0.0
 11
-43.55761318068971
 21
375.1325452842898
 31
0.0
  0
LINE
  5
C83A
330
1F
100
AcDbEntity
  8
_0-0_
100
AcDbLine
 10
-54.23019587232102
 20
374.1325452842898
 30
0.0
 11
-54.23019587232102
 21
364.0689219074952
 31
0.0
  0
ARC
  5
C83B
330
1F
100
AcDbEntity
  8
_0-0_
100
AcDbCircle
 10
-53.23019587232102
 20
374.1325452842898
 30
0.0
 40
1.0
100
AcDbArc
 50
90.0
 51
180.0
  0
LINE
  5
C83C
330
1F
100
AcDbEntity
  8
_0-0_
100
AcDbLine
 10
-54.23019587232102
 20
331.6124858446665
 30
0.0
 11
-41.73864289602966
 21
332.6218645978531
 31
0.0
  0
LINE
  5
C83D
330
1F
100
AcDbEntity
  8
_0-0_
100
AcDbLine
 10
-41.73864289602966
 20
374.5773906709483
 30
0.0
 11
-54.23019587232102
 21
373.0452979205761
 31
0.0
  0
LINE
  5
C83E
330
1F
100
AcDbEntity
  8
_0-0_
100
AcDbLine
 10
-42.55761318068971
 20
332.5556877816962
 30
0.0
 11
-42.55761318068971
 21
331.1325452842898
 31
0.0
  0
ARC
  5
C83F
330
1F
100
AcDbEntity
  8
_0-0_
100
AcDbCircle
 10
-43.55761318068971
 20
374.1325452842898
 30
0.0
 40
1.0
100
AcDbArc
 50
19.70725930709813
 51
90.0
  0
LINE
  5
C840
330
1F
100
AcDbEntity
  8
_0-0_
100
AcDbLine
 10
-35.96220583363288
 20
433.6598509862328
 30
0.0
 11
-38.62265026475439
 21
433.3555912115088
 31
0.0
  0
LINE
  5
C841
330
1F
100
AcDbEntity
  8
_0-0_
100
AcDbLine
 10
-38.62265026475439
 20
433.3555912115088
 30
0.0
 11
-41.20225843808611
 21
432.4520566666292
 31
0.0
  0
LINE
  5
C842
330
1F
100
AcDbEntity
  8
_0-0_
100
AcDbLine
 10
-41.20225843808611
 20
432.4520566666292
 30
0.0
 11
-43.62265026462591
 21
430.9767007915293
 31
0.0
  0
LINE
  5
C843
330
1F
100
AcDbEntity
  8
_0-0_
100
AcDbLine
 10
-43.62265026462591
 20
430.9767007915293
 30
0.0
 11
-45.81028336350231
 21
428.9743515279081
 31
0.0
  0
LINE
  5
C844
330
1F
100
AcDbEntity
  8
_0-0_
100
AcDbLine
 10
-45.81028336350231
 20
428.9743515279081
 30
0.0
 11
-47.69868761000089
 21
426.5058492449034
 31
0.0
  0
LINE
  5
C845
330
1F
100
AcDbEntity
  8
_0-0_
100
AcDbLine
 10
-47.69868761000089
 20
426.5058492449034
 30
0.0
 11
-49.23048479667113
 21
423.6461981352613
 31
0.0
  0
LINE
  5
C846
330
1F
100
AcDbEntity
  8
_0-0_
100
AcDbLine
 10
-49.23048479667113
 20
423.6461981352613
 30
0.0
 11
-50.35913204112308
 21
420.4822872508953
 31
0.0
  0
LINE
  5
C847
330
1F
100
AcDbEntity
  8
_0-0_
100
AcDbLine
 10
-50.35913204112308
 20
420.4822872508953
 30
0.0
 11
-51.05033596795578
 21
417.1102504230106
 31
0.0
  0
LINE
  5
C848
330
1F
100
AcDbEntity
  8
_0-0_
100
AcDbLine
 10
-51.05033596795578
 20
417.1102504230106
 30
0.0
 11
-51.28309469561987
 21
413.6325452842897
 31
0.0
  0
LINE
  5
C849
330
1F
100
AcDbEntity
  8
_0-0_
100
AcDbLine
 10
-51.28309469561987
 20
413.6325452842897
 30
0.0
 11
-51.05033596795578
 21
410.1548401455686
 31
0.0
  0
LINE
  5
C84A
330
1F
100
AcDbEntity
  8
_0-0_
100
AcDbLine
 10
-51.05033596795578
 20
410.1548401455686
 30
0.0
 11
-50.35913204112308
 21
406.7828033176838
 31
0.0
  0
LINE
  5
C84B
330
1F
100
AcDbEntity
  8
_0-0_
100
AcDbLine
 10
-50.35913204112308
 20
406.7828033176838
 30
0.0
 11
-49.23048479667113
 21
403.6188924333178
 31
0.0
  0
LINE
  5
C84C
330
1F
100
AcDbEntity
  8
_0-0_
100
AcDbLine
 10
-49.23048479667113
 20
403.6188924333178
 30
0.0
 11
-47.69868761000089
 21
400.7592413236757
 31
0.0
  0
LINE
  5
C84D
330
1F
100
AcDbEntity
  8
_0-0_
100
AcDbLine
 10
-47.69868761000089
 20
400.7592413236757
 30
0.0
 11
-45.81028336350231
 21
398.2907390406708
 31
0.0
  0
LINE
  5
C84E
330
1F
100
AcDbEntity
  8
_0-0_
100
AcDbLine
 10
-45.81028336350231
 20
398.2907390406708
 30
0.0
 11
-43.62265026462591
 21
396.2883897770498
 31
0.0
  0
LINE
  5
C84F
330
1F
100
AcDbEntity
  8
_0-0_
100
AcDbLine
 10
-43.62265026462591
 20
396.2883897770498
 30
0.0
 11
-41.20225843808611
 21
394.8130339019499
 31
0.0
  0
LINE
  5
C850
330
1F
100
AcDbEntity
  8
_0-0_
100
AcDbLine
 10
-41.20225843808611
 20
394.8130339019499
 30
0.0
 11
-38.62265026475439
 21
393.9094993570702
 31
0.0
  0
LINE
  5
C851
330
1F
100
AcDbEntity
  8
_0-0_
100
AcDbLine
 10
-38.62265026475439
 20
393.9094993570702
 30
0.0
 11
-35.96220583363288
 21
393.6052395823463
 31
0.0
  0
LINE
  5
C852
330
1F
100
AcDbEntity
  8
_0-0_
100
AcDbLine
 10
-35.96220583363288
 20
433.6598509862328
 30
0.0
 11
-28.2487545173949
 21
433.6598509862328
 31
0.0
  0
LINE
  5
C853
330
1F
100
AcDbEntity
  8
_0-0_
100
AcDbLine
 10
-35.96220583363288
 20
393.6052395823463
 30
0.0
 11
-28.2487545173949
 21
393.6052395823463
 31
0.0
  0
LINE
  5
C854
330
1F
100
AcDbEntity
  8
_0-0_
100
AcDbLine
 10
-41.73864289602966
 20
269.6318069164356
 30
0.0
 11
-41.73864289602966
 21
395.0832350208675
 31
0.0
  0
LINE
  5
C855
330
1F
100
AcDbEntity
  8
_0-0_
100
AcDbLine
 10
-49.23650941315599
 20
403.6325452842898
 30
0.0
 11
-54.45771850439746
 21
403.6325452842898
 31
0.0
  0
LINE
  5
C856
330
1F
100
AcDbEntity
  8
_0-0_
100
AcDbLine
 10
-49.32066497645474
 20
401.0961331142743
 30
0.0
 11
-48.95494155498386
 21
401.2865893843017
 31
0.0
  0
LINE
  5
C857
330
1F
100
AcDbEntity
  8
_0-0_
100
AcDbLine
 10
-48.95494155498386
 20
401.2865893843017
 30
0.0
 11
-48.60033045460909
 21
401.8521712769959
 31
0.0
  0
LINE
  5
C858
330
1F
100
AcDbEntity
  8
_0-0_
100
AcDbLine
 10
-48.60033045460909
 20
401.8521712769959
 30
0.0
 11
-48.49195648760724
 21
402.1073890386446
 31
0.0
  0
LINE
  5
C859
330
1F
100
AcDbEntity
  8
_0-0_
100
AcDbLine
 10
-48.49195648760724
 20
425.1577015299346
 30
0.0
 11
-48.84076859138713
 21
425.8391782650676
 31
0.0
  0
LINE
  5
C85A
330
1F
100
AcDbEntity
  8
_0-0_
100
AcDbLine
 10
-48.84076859138713
 20
425.8391782650676
 30
0.0
 11
-49.20416210398776
 21
426.1497626339339
 31
0.0
  0
LINE
  5
C85B
330
1F
100
AcDbEntity
  8
_0-0_
100
AcDbLine
 10
-49.20416210398776
 20
426.1497626339339
 30
0.0
 11
-49.32066497645474
 21
426.168957454305
 31
0.0
  0
LINE
  5
C85C
330
1F
100
AcDbEntity
  8
_0-0_
100
AcDbLine
 10
-49.23650941315599
 20
423.6325452842898
 30
0.0
 11
-54.45771850439746
 21
423.6325452842898
 31
0.0
  0
LINE
  5
C85D
330
1F
100
AcDbEntity
  8
_0-0_
100
AcDbLine
 10
-41.73864289602966
 20
432.1818555477116
 30
0.0
 11
-41.73864289602966
 21
437.6332836521442
 31
0.0
  0
LINE
  5
C85E
330
1F
100
AcDbEntity
  8
_0-0_
100
AcDbLine
 10
-23.02736341651507
 20
413.6325452842897
 30
0.0
 11
-23.12133616193
 21
415.3690270609768
 31
0.0
  0
LINE
  5
C85F
330
1F
100
AcDbEntity
  8
_0-0_
100
AcDbLine
 10
-23.12133616193
 20
415.3690270609768
 30
0.0
 11
-23.40039908385802
 21
417.052746717582
 31
0.0
  0
LINE
  5
C860
330
1F
100
AcDbEntity
  8
_0-0_
100
AcDbLine
 10
-23.40039908385802
 20
417.052746717582
 30
0.0
 11
-23.85607299662911
 21
418.632545284342
 31
0.0
  0
LINE
  5
C861
330
1F
100
AcDbEntity
  8
_0-0_
100
AcDbLine
 10
-23.85607299662911
 20
418.632545284342
 30
0.0
 11
-24.47451247898562
 21
420.0604213812223
 31
0.0
  0
LINE
  5
C862
330
1F
100
AcDbEntity
  8
_0-0_
100
AcDbLine
 10
-24.47451247898562
 20
420.0604213812223
 30
0.0
 11
-25.23692656020171
 21
421.2929897155597
 31
0.0
  0
LINE
  5
C863
330
1F
100
AcDbEntity
  8
_0-0_
100
AcDbLine
 10
-25.23692656020171
 20
421.2929897155597
 30
0.0
 11
-26.12014967421965
 21
422.2927993222249
 31
0.0
  0
LINE
  5
C864
330
1F
100
AcDbEntity
  8
_0-0_
100
AcDbLine
 10
-26.12014967421965
 20
422.2927993222249
 30
0.0
 11
-27.09734553365275
 21
423.0294714922474
 31
0.0
  0
LINE
  5
C865
330
1F
100
AcDbEntity
  8
_0-0_
100
AcDbLine
 10
-27.09734553365275
 20
423.0294714922474
 30
0.0
 11
-28.13882253679685
 21
423.4806228145148
 31
0.0
  0
LINE
  5
C866
330
1F
100
AcDbEntity
  8
_0-0_
100
AcDbLine
 10
-28.13882253679685
 20
423.4806228145148
 30
0.0
 11
-29.21293593192445
 21
423.6325452843946
 31
0.0
  0
LINE
  5
C867
330
1F
100
AcDbEntity
  8
_0-0_
100
AcDbLine
 10
-29.21293593192445
 20
423.6325452843946
 30
0.0
 11
-30.28704932705205
 21
423.4806228145148
 31
0.0
  0
LINE
  5
C868
330
1F
100
AcDbEntity
  8
_0-0_
100
AcDbLine
 10
-30.28704932705205
 20
423.4806228145148
 30
0.0
 11
-31.32852633019593
 21
423.0294714922474
 31
0.0
  0
LINE
  5
C869
330
1F
100
AcDbEntity
  8
_0-0_
100
AcDbLine
 10
-31.32852633019593
 20
423.0294714922474
 30
0.0
 11
-32.30572218962925
 21
422.2927993222249
 31
0.0
  0
LINE
  5
C86A
330
1F
100
AcDbEntity
  8
_0-0_
100
AcDbLine
 10
-32.30572218962925
 20
422.2927993222249
 30
0.0
 11
-33.18894530364719
 21
421.2929897155597
 31
0.0
  0
LINE
  5
C86B
330
1F
100
AcDbEntity
  8
_0-0_
100
AcDbLine
 10
-33.18894530364719
 20
421.2929897155597
 30
0.0
 11
-33.95135938486328
 21
420.0604213812223
 31
0.0
  0
LINE
  5
C86C
330
1F
100
AcDbEntity
  8
_0-0_
100
AcDbLine
 10
-33.95135938486328
 20
420.0604213812223
 30
0.0
 11
-34.56979886721956
 21
418.632545284342
 31
0.0
  0
LINE
  5
C86D
330
1F
100
AcDbEntity
  8
_0-0_
100
AcDbLine
 10
-34.56979886721956
 20
418.632545284342
 30
0.0
 11
-35.02547277999088
 21
417.052746717582
 31
0.0
  0
LINE
  5
C86E
330
1F
100
AcDbEntity
  8
_0-0_
100
AcDbLine
 10
-35.02547277999088
 20
417.052746717582
 30
0.0
 11
-35.30453570191912
 21
415.3690270609768
 31
0.0
  0
LINE
  5
C86F
330
1F
100
AcDbEntity
  8
_0-0_
100
AcDbLine
 10
-35.30453570191912
 20
415.3690270609768
 30
0.0
 11
-35.39850844733383
 21
413.6325452842897
 31
0.0
  0
LINE
  5
C870
330
1F
100
AcDbEntity
  8
_0-0_
100
AcDbLine
 10
-35.39850844733383
 20
413.6325452842897
 30
0.0
 11
-35.30453570191912
 21
411.896063507602
 31
0.0
  0
LINE
  5
C871
330
1F
100
AcDbEntity
  8
_0-0_
100
AcDbLine
 10
-35.30453570191912
 20
411.896063507602
 30
0.0
 11
-35.02547277999088
 21
410.2123438509968
 31
0.0
  0
LINE
  5
C872
330
1F
100
AcDbEntity
  8
_0-0_
100
AcDbLine
 10
-35.02547277999088
 20
410.2123438509968
 30
0.0
 11
-34.56979886721956
 21
408.6325452842368
 31
0.0
  0
LINE
  5
C873
330
1F
100
AcDbEntity
  8
_0-0_
100
AcDbLine
 10
-34.56979886721956
 20
408.6325452842368
 30
0.0
 11
-33.95135938486328
 21
407.2046691873567
 31
0.0
  0
LINE
  5
C874
330
1F
100
AcDbEntity
  8
_0-0_
100
AcDbLine
 10
-33.95135938486328
 20
407.2046691873567
 30
0.0
 11
-33.18894530364719
 21
405.9721008530194
 31
0.0
  0
LINE
  5
C875
330
1F
100
AcDbEntity
  8
_0-0_
100
AcDbLine
 10
-33.18894530364719
 20
405.9721008530194
 30
0.0
 11
-32.30572218962925
 21
404.9722912463542
 31
0.0
  0
LINE
  5
C876
330
1F
100
AcDbEntity
  8
_0-0_
100
AcDbLine
 10
-32.30572218962925
 20
404.9722912463542
 30
0.0
 11
-31.32852633019593
 21
404.2356190763318
 31
0.0
  0
LINE
  5
C877
330
1F
100
AcDbEntity
  8
_0-0_
100
AcDbLine
 10
-31.32852633019593
 20
404.2356190763318
 30
0.0
 11
-30.28704932705205
 21
403.7844677540642
 31
0.0
  0
LINE
  5
C878
330
1F
100
AcDbEntity
  8
_0-0_
100
AcDbLine
 10
-30.28704932705205
 20
403.7844677540642
 30
0.0
 11
-29.21293593192445
 21
403.6325452841845
 31
0.0
  0
LINE
  5
C879
330
1F
100
AcDbEntity
  8
_0-0_
100
AcDbLine
 10
-29.21293593192445
 20
403.6325452841845
 30
0.0
 11
-28.13882253679685
 21
403.7844677540642
 31
0.0
  0
LINE
  5
C87A
330
1F
100
AcDbEntity
  8
_0-0_
100
AcDbLine
 10
-28.13882253679685
 20
403.7844677540642
 30
0.0
 11
-27.09734553365275
 21
404.2356190763318
 31
0.0
  0
LINE
  5
C87B
330
1F
100
AcDbEntity
  8
_0-0_
100
AcDbLine
 10
-27.09734553365275
 20
404.2356190763318
 30
0.0
 11
-26.12014967421965
 21
404.9722912463542
 31
0.0
  0
LINE
  5
C87C
330
1F
100
AcDbEntity
  8
_0-0_
100
AcDbLine
 10
-26.12014967421965
 20
404.9722912463542
 30
0.0
 11
-25.23692656020171
 21
405.9721008530194
 31
0.0
  0
LINE
  5
C87D
330
1F
100
AcDbEntity
  8
_0-0_
100
AcDbLine
 10
-25.23692656020171
 20
405.9721008530194
 30
0.0
 11
-24.47451247898562
 21
407.2046691873567
 31
0.0
  0
LINE
  5
C87E
330
1F
100
AcDbEntity
  8
_0-0_
100
AcDbLine
 10
-24.47451247898562
 20
407.2046691873567
 30
0.0
 11
-23.85607299662911
 21
408.6325452842368
 31
0.0
  0
LINE
  5
C87F
330
1F
100
AcDbEntity
  8
_0-0_
100
AcDbLine
 10
-23.85607299662911
 20
408.6325452842368
 30
0.0
 11
-23.40039908385802
 21
410.2123438509968
 31
0.0
  0
LINE
  5
C880
330
1F
100
AcDbEntity
  8
_0-0_
100
AcDbLine
 10
-23.40039908385802
 20
410.2123438509968
 30
0.0
 11
-23.12133616193
 21
411.8960635076018
 31
0.0
  0
LINE
  5
C881
330
1F
100
AcDbEntity
  8
_0-0_
100
AcDbLine
 10
-23.12133616193
 20
411.8960635076018
 30
0.0
 11
-23.02736341651507
 21
413.6325452842897
 31
0.0
  0
LINE
  5
C882
330
1F
100
AcDbEntity
  8
_0-0_
100
AcDbLine
 10
-195.2959052255312
 20
371.9468322097155
 30
0.0
 11
-194.5507998833718
 21
372.0484032140339
 31
0.0
  0
LINE
  5
C883
330
1F
100
AcDbEntity
  8
_0-0_
100
AcDbLine
 10
-194.5507998833718
 20
372.0484032140339
 30
0.0
 11
-193.8283341899919
 21
372.3500300434207
 31
0.0
  0
LINE
  5
C884
330
1F
100
AcDbEntity
  8
_0-0_
100
AcDbLine
 10
-193.8283341899919
 20
372.3500300434207
 30
0.0
 11
-193.1504598999004
 21
372.8425479192945
 31
0.0
  0
LINE
  5
C885
330
1F
100
AcDbEntity
  8
_0-0_
100
AcDbLine
 10
-193.1504598999004
 20
372.8425479192945
 30
0.0
 11
-192.5377738803804
 21
373.5109919352242
 31
0.0
  0
LINE
  5
C886
330
1F
100
AcDbEntity
  8
_0-0_
100
AcDbLine
 10
-192.5377738803804
 20
373.5109919352242
 30
0.0
 11
-192.0088922861009
 21
374.3350517580343
 31
0.0
  0
LINE
  5
C887
330
1F
100
AcDbEntity
  8
_0-0_
100
AcDbLine
 10
-192.0088922861009
 20
374.3350517580343
 30
0.0
 11
-191.5798849166774
 21
375.2896887470026
 31
0.0
  0
LINE
  5
C888
330
1F
100
AcDbEntity
  8
_0-0_
100
AcDbLine
 10
-191.5798849166774
 20
375.2896887470026
 30
0.0
 11
-191.2637869439413
 21
376.3458967402896
 31
0.0
  0
LINE
  5
C889
330
1F
100
AcDbEntity
  8
_0-0_
100
AcDbLine
 10
-191.2637869439413
 20
376.3458967402896
 30
0.0
 11
-191.0702028448411
 21
377.4715833924861
 31
0.0
  0
LINE
  5
C88A
330
1F
100
AcDbEntity
  8
_0-0_
100
AcDbLine
 10
-191.0702028448411
 20
377.4715833924861
 30
0.0
 11
-191.0050145742693
 21
378.6325452842898
 31
0.0
  0
LINE
  5
C88B
330
1F
100
AcDbEntity
  8
_0-0_
100
AcDbLine
 10
-191.0050145742693
 20
378.6325452842898
 30
0.0
 11
-191.0702028448411
 21
379.7935071760935
 31
0.0
  0
LINE
  5
C88C
330
1F
100
AcDbEntity
  8
_0-0_
100
AcDbLine
 10
-191.0702028448411
 20
379.7935071760935
 30
0.0
 11
-191.2637869439413
 21
380.91919382829
 31
0.0
  0
LINE
  5
C88D
330
1F
100
AcDbEntity
  8
_0-0_
100
AcDbLine
 10
-191.2637869439413
 20
380.91919382829
 30
0.0
 11
-191.5798849166774
 21
381.9754018215767
 31
0.0
  0
LINE
  5
C88E
330
1F
100
AcDbEntity
  8
_0-0_
100
AcDbLine
 10
-191.5798849166774
 20
381.9754018215767
 30
0.0
 11
-192.0088922861009
 21
382.9300388105453
 31
0.0
  0
LINE
  5
C88F
330
1F
100
AcDbEntity
  8
_0-0_
100
AcDbLine
 10
-192.0088922861009
 20
382.9300388105453
 30
0.0
 11
-192.5377738803804
 21
383.7540986333554
 31
0.0
  0
LINE
  5
C890
330
1F
100
AcDbEntity
  8
_0-0_
100
AcDbLine
 10
-192.5377738803804
 20
383.7540986333554
 30
0.0
 11
-193.1504598999004
 21
384.4225426492849
 31
0.0
  0
LINE
  5
C891
330
1F
100
AcDbEntity
  8
_0-0_
100
AcDbLine
 10
-193.1504598999004
 20
384.4225426492849
 30
0.0
 11
-193.8283341899919
 21
384.9150605251589
 31
0.0
  0
LINE
  5
C892
330
1F
100
AcDbEntity
  8
_0-0_
100
AcDbLine
 10
-193.8283341899919
 20
384.9150605251589
 30
0.0
 11
-194.5507998833718
 21
385.2166873545459
 31
0.0
  0
LINE
  5
C893
330
1F
100
AcDbEntity
  8
_0-0_
100
AcDbLine
 10
-194.5507998833718
 20
385.2166873545459
 30
0.0
 11
-195.2959052255312
 21
385.3182583588641
 31
0.0
  0
LINE
  5
C894
330
1F
100
AcDbEntity
  8
_0-0_
100
AcDbLine
 10
-195.2959052255312
 20
385.3182583588641
 30
0.0
 11
-196.041010567691
 21
385.2166873545459
 31
0.0
  0
LINE
  5
C895
330
1F
100
AcDbEntity
  8
_0-0_
100
AcDbLine
 10
-196.041010567691
 20
385.2166873545459
 30
0.0
 11
-196.7634762610705
 21
384.9150605251589
 31
0.0
  0
LINE
  5
C896
330
1F
100
AcDbEntity
  8
_0-0_
100
AcDbLine
 10
-196.7634762610705
 20
384.9150605251589
 30
0.0
 11
-197.441350551162
 21
384.4225426492849
 31
0.0
  0
LINE
  5
C897
330
1F
100
AcDbEntity
  8
_0-0_
100
AcDbLine
 10
-197.441350551162
 20
384.4225426492849
 30
0.0
 11
-198.054036570682
 21
383.7540986333554
 31
0.0
  0
LINE
  5
C898
330
1F
100
AcDbEntity
  8
_0-0_
100
AcDbLine
 10
-198.054036570682
 20
383.7540986333554
 30
0.0
 11
-198.5829181649615
 21
382.9300388105453
 31
0.0
  0
LINE
  5
C899
330
1F
100
AcDbEntity
  8
_0-0_
100
AcDbLine
 10
-198.5829181649615
 20
382.9300388105453
 30
0.0
 11
-199.011925534385
 21
381.9754018215767
 31
0.0
  0
LINE
  5
C89A
330
1F
100
AcDbEntity
  8
_0-0_
100
AcDbLine
 10
-199.011925534385
 20
381.9754018215767
 30
0.0
 11
-199.3280235071211
 21
380.91919382829
 31
0.0
  0
LINE
  5
C89B
330
1F
100
AcDbEntity
  8
_0-0_
100
AcDbLine
 10
-199.3280235071211
 20
380.91919382829
 30
0.0
 11
-199.5216076062213
 21
379.7935071760935
 31
0.0
  0
LINE
  5
C89C
330
1F
100
AcDbEntity
  8
_0-0_
100
AcDbLine
 10
-199.5216076062213
 20
379.7935071760935
 30
0.0
 11
-199.5867958767931
 21
378.6325452842898
 31
0.0
  0
LINE
  5
C89D
330
1F
100
AcDbEntity
  8
_0-0_
100
AcDbLine
 10
-199.5867958767931
 20
378.6325452842898
 30
0.0
 11
-199.5216076062213
 21
377.4715833924861
 31
0.0
  0
LINE
  5
C89E
330
1F
100
AcDbEntity
  8
_0-0_
100
AcDbLine
 10
-199.5216076062213
 20
377.4715833924861
 30
0.0
 11
-199.3280235071211
 21
376.3458967402896
 31
0.0
  0
LINE
  5
C89F
330
1F
100
AcDbEntity
  8
_0-0_
100
AcDbLine
 10
-199.3280235071211
 20
376.3458967402896
 30
0.0
 11
-199.011925534385
 21
375.2896887470026
 31
0.0
  0
LINE
  5
C8A0
330
1F
100
AcDbEntity
  8
_0-0_
100
AcDbLine
 10
-199.011925534385
 20
375.2896887470026
 30
0.0
 11
-198.5829181649615
 21
374.3350517580343
 31
0.0
  0
LINE
  5
C8A1
330
1F
100
AcDbEntity
  8
_0-0_
100
AcDbLine
 10
-198.5829181649615
 20
374.3350517580343
 30
0.0
 11
-198.054036570682
 21
373.5109919352242
 31
0.0
  0
LINE
  5
C8A2
330
1F
100
AcDbEntity
  8
_0-0_
100
AcDbLine
 10
-198.054036570682
 20
373.5109919352242
 30
0.0
 11
-197.441350551162
 21
372.8425479192945
 31
0.0
  0
LINE
  5
C8A3
330
1F
100
AcDbEntity
  8
_0-0_
100
AcDbLine
 10
-197.441350551162
 20
372.8425479192945
 30
0.0
 11
-196.7634762610705
 21
372.3500300434207
 31
0.0
  0
LINE
  5
C8A4
330
1F
100
AcDbEntity
  8
_0-0_
100
AcDbLine
 10
-196.7634762610705
 20
372.3500300434207
 30
0.0
 11
-196.041010567691
 21
372.0484032140339
 31
0.0
  0
LINE
  5
C8A5
330
1F
100
AcDbEntity
  8
_0-0_
100
AcDbLine
 10
-196.041010567691
 20
372.0484032140339
 30
0.0
 11
-195.2959052255312
 21
371.9468322097155
 31
0.0
  0
LINE
  5
C8A6
330
1F
100
AcDbEntity
  8
_0-0_
100
AcDbLine
 10
-195.302508100525
 20
371.9468401254141
 30
0.0
 11
-188.4081081124543
 21
371.6325452842898
 31
0.0
  0
LINE
  5
C8A7
330
1F
100
AcDbEntity
  8
_0-0_
100
AcDbLine
 10
-195.302508100525
 20
385.3182504431652
 30
0.0
 11
-188.4081081124543
 21
385.6325452842898
 31
0.0
  0
LINE
  5
C8A8
330
1F
100
AcDbEntity
  8
_0-0_
100
AcDbLine
 10
-188.4081081124543
 20
371.6325452842898
 30
0.0
 11
-187.6266392184998
 21
371.7388910132042
 31
0.0
  0
LINE
  5
C8A9
330
1F
100
AcDbEntity
  8
_0-0_
100
AcDbLine
 10
-187.6266392184998
 20
371.7388910132042
 30
0.0
 11
-186.8689148614457
 21
372.0546969387886
 31
0.0
  0
LINE
  5
C8AA
330
1F
100
AcDbEntity
  8
_0-0_
100
AcDbLine
 10
-186.8689148614457
 20
372.0546969387886
 30
0.0
 11
-186.157958112454
 21
372.5703674577985
 31
0.0
  0
LINE
  5
C8AB
330
1F
100
AcDbEntity
  8
_0-0_
100
AcDbLine
 10
-186.157958112454
 20
372.5703674577985
 30
0.0
 11
-185.5153710325819
 21
373.270234182457
 31
0.0
  0
LINE
  5
C8AC
330
1F
100
AcDbEntity
  8
_0-0_
100
AcDbLine
 10
-185.5153710325819
 20
373.270234182457
 30
0.0
 11
-184.960678305086
 21
374.1330320164843
 31
0.0
  0
LINE
  5
C8AD
330
1F
100
AcDbEntity
  8
_0-0_
100
AcDbLine
 10
-184.960678305086
 20
374.1330320164843
 30
0.0
 11
-184.5107339878031
 21
375.1325452842898
 31
0.0
  0
LINE
  5
C8AE
330
1F
100
AcDbEntity
  8
_0-0_
100
AcDbLine
 10
-184.5107339878031
 20
375.1325452842898
 30
0.0
 11
-184.1792094111315
 21
376.2384042810102
 31
0.0
  0
LINE
  5
C8AF
330
1F
100
AcDbEntity
  8
_0-0_
100
AcDbLine
 10
-184.1792094111315
 20
376.2384042810102
 30
0.0
 11
-183.9761777815738
 21
377.4170080406213
 31
0.0
  0
LINE
  5
C8B0
330
1F
100
AcDbEntity
  8
_0-0_
100
AcDbLine
 10
-183.9761777815738
 20
377.4170080406213
 30
0.0
 11
-183.9078081124544
 21
378.6325452842898
 31
0.0
  0
LINE
  5
C8B1
330
1F
100
AcDbEntity
  8
_0-0_
100
AcDbLine
 10
-183.9078081124544
 20
378.6325452842898
 30
0.0
 11
-183.9761777815738
 21
379.8480825279582
 31
0.0
  0
LINE
  5
C8B2
330
1F
100
AcDbEntity
  8
_0-0_
100
AcDbLine
 10
-183.9761777815738
 20
379.8480825279582
 30
0.0
 11
-184.1792094111315
 21
381.0266862875694
 31
0.0
  0
LINE
  5
C8B3
330
1F
100
AcDbEntity
  8
_0-0_
100
AcDbLine
 10
-184.1792094111315
 20
381.0266862875694
 30
0.0
 11
-184.5107339878031
 21
382.1325452842898
 31
0.0
  0
LINE
  5
C8B4
330
1F
100
AcDbEntity
  8
_0-0_
100
AcDbLine
 10
-184.5107339878031
 20
382.1325452842898
 30
0.0
 11
-184.960678305086
 21
383.1320585520952
 31
0.0
  0
LINE
  5
C8B5
330
1F
100
AcDbEntity
  8
_0-0_
100
AcDbLine
 10
-184.960678305086
 20
383.1320585520952
 30
0.0
 11
-185.5153710325819
 21
383.9948563861226
 31
0.0
  0
LINE
  5
C8B6
330
1F
100
AcDbEntity
  8
_0-0_
100
AcDbLine
 10
-185.5153710325819
 20
383.9948563861226
 30
0.0
 11
-186.157958112454
 21
384.6947231107808
 31
0.0
  0
LINE
  5
C8B7
330
1F
100
AcDbEntity
  8
_0-0_
100
AcDbLine
 10
-186.157958112454
 20
384.6947231107808
 30
0.0
 11
-186.8689148614457
 21
385.210393629791
 31
0.0
  0
LINE
  5
C8B8
330
1F
100
AcDbEntity
  8
_0-0_
100
AcDbLine
 10
-186.8689148614457
 20
385.210393629791
 30
0.0
 11
-187.6266392184998
 21
385.5261995553754
 31
0.0
  0
LINE
  5
C8B9
330
1F
100
AcDbEntity
  8
_0-0_
100
AcDbLine
 10
-187.6266392184998
 20
385.5261995553754
 30
0.0
 11
-188.4081081124543
 21
385.6325452842898
 31
0.0
  0
LINE
  5
C8BA
330
1F
100
AcDbEntity
  8
_0-0_
100
AcDbLine
 10
-188.4081081124543
 20
385.6325452842898
 30
0.0
 11
-188.6716701074058
 21
385.6205302901681
 31
0.0
  0
LINE
  5
C8BB
330
1F
100
AcDbEntity
  8
_0-0_
100
AcDbLine
 10
-189.8007100377638
 20
371.6960297936919
 30
0.0
 11
-188.9597854569958
 21
370.5506046172982
 31
0.0
  0
LINE
  5
C8BC
330
1F
100
AcDbEntity
  8
_0-0_
100
AcDbLine
 10
-188.9597854569958
 20
370.5506046172982
 30
0.0
 11
-188.0043397736544
 21
369.6507451184118
 31
0.0
  0
LINE
  5
C8BD
330
1F
100
AcDbEntity
  8
_0-0_
100
AcDbLine
 10
-188.0043397736544
 20
369.6507451184118
 30
0.0
 11
-186.9634037213497
 21
369.023793072555
 31
0.0
  0
LINE
  5
C8BE
330
1F
100
AcDbEntity
  8
_0-0_
100
AcDbLine
 10
-186.9634037213497
 20
369.023793072555
 30
0.0
 11
-185.8686056152919
 21
368.6887981003895
 31
0.0
  0
LINE
  5
C8BF
330
1F
100
AcDbEntity
  8
_0-0_
100
AcDbLine
 10
-185.8686056152919
 20
368.6887981003895
 30
0.0
 11
-184.7532103419385
 21
368.6559388546268
 31
0.0
  0
LINE
  5
C8C0
330
1F
100
AcDbEntity
  8
_0-0_
100
AcDbLine
 10
-184.7532103419385
 20
368.6559388546268
 30
0.0
 11
-183.6511086222538
 21
368.9262137468238
 31
0.0
  0
LINE
  5
C8C1
330
1F
100
AcDbEntity
  8
_0-0_
100
AcDbLine
 10
-183.6511086222538
 20
368.9262137468238
 30
0.0
 11
-182.5957872592992
 21
369.491410611146
 31
0.0
  0
LINE
  5
C8C2
330
1F
100
AcDbEntity
  8
_0-0_
100
AcDbLine
 10
-182.5957872592992
 20
369.491410611146
 30
0.0
 11
-181.6193116586703
 21
370.334356226874
 31
0.0
  0
LINE
  5
C8C3
330
1F
100
AcDbEntity
  8
_0-0_
100
AcDbLine
 10
-181.6193116586703
 20
370.334356226874
 30
0.0
 11
-180.7513515373716
 21
371.4294381180248
 31
0.0
  0
LINE
  5
C8C4
330
1F
100
AcDbEntity
  8
_0-0_
100
AcDbLine
 10
-180.7513515373716
 20
371.4294381180248
 30
0.0
 11
-180.0182794244795
 21
372.7433827754749
 31
0.0
  0
LINE
  5
C8C5
330
1F
100
AcDbEntity
  8
_0-0_
100
AcDbLine
 10
-180.0182794244795
 20
372.7433827754749
 30
0.0
 11
-179.442369345192
 21
374.2362666556955
 31
0.0
  0
LINE
  5
C8C6
330
1F
100
AcDbEntity
  8
_0-0_
100
AcDbLine
 10
-179.442369345192
 20
374.2362666556955
 30
0.0
 11
-179.0411200358439
 21
375.862729237422
 31
0.0
  0
LINE
  5
C8C7
330
1F
100
AcDbEntity
  8
_0-0_
100
AcDbLine
 10
-179.0411200358439
 20
375.862729237422
 30
0.0
 11
-178.8267232536577
 21
377.5733512781369
 31
0.0
  0
LINE
  5
C8C8
330
1F
100
AcDbEntity
  8
_0-0_
100
AcDbLine
 10
-178.8267232536577
 20
377.5733512781369
 30
0.0
 11
-178.80569333637
 21
379.316156392752
 31
0.0
  0
LINE
  5
C8C9
330
1F
100
AcDbEntity
  8
_0-0_
100
AcDbLine
 10
-178.80569333637
 20
379.316156392752
 30
0.0
 11
-178.9786692673756
 21
381.0381903297594
 31
0.0
  0
LINE
  5
C8CA
330
1F
100
AcDbEntity
  8
_0-0_
100
AcDbLine
 10
-178.9786692673756
 20
381.0381903297594
 30
0.0
 11
-179.340395260542
 21
382.6871299593756
 31
0.0
  0
LINE
  5
C8CB
330
1F
100
AcDbEntity
  8
_0-0_
100
AcDbLine
 10
-179.340395260542
 20
382.6871299593756
 30
0.0
 11
-179.8798804546081
 21
384.2128730853581
 31
0.0
  0
LINE
  5
C8CC
330
1F
100
AcDbEntity
  8
_0-0_
100
AcDbLine
 10
-179.8798804546081
 20
384.2128730853581
 30
0.0
 11
-180.5807328649446
 21
385.5690607748879
 31
0.0
  0
LINE
  5
C8CD
330
1F
100
AcDbEntity
  8
_0-0_
100
AcDbLine
 10
-180.5807328649446
 20
385.5690607748879
 30
0.0
 11
-181.4216574457127
 21
386.7144859512814
 31
0.0
  0
LINE
  5
C8CE
330
1F
100
AcDbEntity
  8
_0-0_
100
AcDbLine
 10
-181.4216574457127
 20
386.7144859512814
 30
0.0
 11
-182.3771031290539
 21
387.6143454501678
 31
0.0
  0
LINE
  5
C8CF
330
1F
100
AcDbEntity
  8
_0-0_
100
AcDbLine
 10
-182.3771031290539
 20
387.6143454501678
 30
0.0
 11
-183.4180391813586
 21
388.2412974960244
 31
0.0
  0
LINE
  5
C8D0
330
1F
100
AcDbEntity
  8
_0-0_
100
AcDbLine
 10
-183.4180391813586
 20
388.2412974960244
 30
0.0
 11
-184.5128372874164
 21
388.5762924681901
 31
0.0
  0
LINE
  5
C8D1
330
1F
100
AcDbEntity
  8
_0-0_
100
AcDbLine
 10
-184.5128372874164
 20
388.5762924681901
 30
0.0
 11
-185.6282325607697
 21
388.6091517139525
 31
0.0
  0
LINE
  5
C8D2
330
1F
100
AcDbEntity
  8
_0-0_
100
AcDbLine
 10
-185.6282325607697
 20
388.6091517139525
 30
0.0
 11
-186.7303342804548
 21
388.3388768217558
 31
0.0
  0
LINE
  5
C8D3
330
1F
100
AcDbEntity
  8
_0-0_
100
AcDbLine
 10
-186.7303342804548
 20
388.3388768217558
 30
0.0
 11
-187.7856556434092
 21
387.7736799574338
 31
0.0
  0
LINE
  5
C8D4
330
1F
100
AcDbEntity
  8
_0-0_
100
AcDbLine
 10
-187.7856556434092
 20
387.7736799574338
 30
0.0
 11
-188.762131244038
 21
386.9307343417061
 31
0.0
  0
LINE
  5
C8D5
330
1F
100
AcDbEntity
  8
_0-0_
100
AcDbLine
 10
-188.762131244038
 20
386.9307343417061
 30
0.0
 11
-189.6300913653367
 21
385.8356524505546
 31
0.0
  0
LINE
  5
C8D6
330
1F
100
AcDbEntity
  8
_0-0_
100
AcDbLine
 10
-189.6300913653367
 20
385.8356524505546
 30
0.0
 11
-189.8007100377638
 21
385.5690607748879
 31
0.0
  0
LINE
  5
C8D7
330
1F
100
AcDbEntity
  8
SUNPOU
100
AcDbLine
 10
317.2110062039212
 20
223.6325452842895
 30
0.0
 11
317.2110062039212
 21
483.6325452842897
 31
0.0
  0
LINE
  5
C8D8
330
1F
100
AcDbEntity
  8
SUNPOU
100
AcDbLine
 10
317.2110062039212
 20
223.6325452842895
 30
0.0
 11
314.1051776626909
 21
235.2236551997584
 31
0.0
  0
LINE
  5
C8D9
330
1F
100
AcDbEntity
  8
SUNPOU
100
AcDbLine
 10
317.2110062039212
 20
223.6325452842895
 30
0.0
 11
320.3168347451517
 21
235.2236551997584
 31
0.0
  0
LINE
  5
C8DA
330
1F
100
AcDbEntity
  8
SUNPOU
100
AcDbLine
 10
317.2110062039212
 20
483.6325452842897
 30
0.0
 11
314.1051776626909
 21
472.0414353688206
 31
0.0
  0
LINE
  5
C8DB
330
1F
100
AcDbEntity
  8
SUNPOU
100
AcDbLine
 10
317.2110062039212
 20
483.6325452842897
 30
0.0
 11
320.3168347451517
 21
472.0414353688206
 31
0.0
  0
LINE
  5
C8DC
330
1F
100
AcDbEntity
  8
SUNPOU
100
AcDbLine
 10
317.2110062039212
 20
223.6325452842895
 30
0.0
 11
210.2206380532916
 21
223.6325452842895
 31
0.0
  0
LINE
  5
C8DD
330
1F
100
AcDbEntity
  8
SUNPOU
100
AcDbLine
 10
317.2110062039212
 20
483.6325452842897
 30
0.0
 11
210.2206380532916
 21
483.6325452842897
 31
0.0
  0
LINE
  5
C8DE
330
1F
100
AcDbEntity
  8
SUNPOU
100
AcDbLine
 10
-400.7793619468141
 20
527.8353578878839
 30
0.0
 11
229.2206380532916
 21
527.8353578878839
 31
0.0
  0
LINE
  5
C8DF
330
1F
100
AcDbEntity
  8
SUNPOU
100
AcDbLine
 10
-400.7793619468141
 20
527.8353578878839
 30
0.0
 11
-389.1882520313452
 21
530.9411864291141
 31
0.0
  0
LINE
  5
C8E0
330
1F
100
AcDbEntity
  8
SUNPOU
100
AcDbLine
 10
-400.7793619468141
 20
527.8353578878839
 30
0.0
 11
-389.1882520313452
 21
524.7295293466536
 31
0.0
  0
LINE
  5
C8E1
330
1F
100
AcDbEntity
  8
SUNPOU
100
AcDbLine
 10
229.2206380532916
 20
527.8353578878839
 30
0.0
 11
217.6295281378227
 21
530.9411864291141
 31
0.0
  0
LINE
  5
C8E2
330
1F
100
AcDbEntity
  8
SUNPOU
100
AcDbLine
 10
229.2206380532916
 20
527.8353578878839
 30
0.0
 11
217.6295281378227
 21
524.7295293466536
 31
0.0
  0
LINE
  5
C8E3
330
1F
100
AcDbEntity
  8
SUNPOU
100
AcDbLine
 10
-400.7793619468141
 20
527.8353578878839
 30
0.0
 11
-400.7793619468141
 21
365.6325452842898
 31
0.0
  0
LINE
  5
C8E4
330
1F
100
AcDbEntity
  8
SUNPOU
100
AcDbLine
 10
229.2206380532916
 20
527.8353578878839
 30
0.0
 11
229.2206380532916
 21
486.648712907704
 31
0.0
  0
LINE
  5
C8E5
330
1F
100
AcDbEntity
  8
_0-0_
100
AcDbLine
 10
-182.0649245473114
 20
407.2007590891058
 30
0.0
 11
-186.3753227141733
 21
407.5713478909561
 31
0.0
  0
LINE
  5
C8E6
330
1F
100
AcDbEntity
  8
_0-0_
100
AcDbLine
 10
-186.3753227141733
 20
407.5713478909561
 30
0.0
 11
-190.6497273711013
 21
406.303033469954
 31
0.0
  0
LINE
  5
C8E7
330
1F
100
AcDbEntity
  8
_0-0_
100
AcDbLine
 10
-190.6497273711013
 20
406.303033469954
 30
0.0
 11
-194.7582628955483
 21
403.434352917983
 31
0.0
  0
LINE
  5
C8E8
330
1F
100
AcDbEntity
  8
_0-0_
100
AcDbLine
 10
-194.7582628955483
 20
403.434352917983
 30
0.0
 11
-198.5760935146229
 21
399.0524696419934
 31
0.0
  0
LINE
  5
C8E9
330
1F
100
AcDbEntity
  8
_0-0_
100
AcDbLine
 10
-198.5760935146229
 20
399.0524696419934
 30
0.0
 11
-201.9872163768803
 21
393.2905249479854
 31
0.0
  0
LINE
  5
C8EA
330
1F
100
AcDbEntity
  8
_0-0_
100
AcDbLine
 10
-201.9872163768803
 20
393.2905249479854
 30
0.0
 11
-204.8879862402621
 21
386.3235926098021
 31
0.0
  0
LINE
  5
C8EB
330
1F
100
AcDbEntity
  8
_0-0_
100
AcDbLine
 10
-204.8879862402621
 20
386.3235926098021
 30
0.0
 11
-207.1902646803299
 21
378.3633593411014
 31
0.0
  0
LINE
  5
C8EC
330
1F
100
AcDbEntity
  8
_0-0_
100
AcDbLine
 10
-207.1902646803299
 20
378.3633593411014
 30
0.0
 11
-208.824098131691
 21
369.6516928016801
 31
0.0
  0
LINE
  5
C8ED
330
1F
100
AcDbEntity
  8
_0-0_
100
AcDbLine
 10
-208.824098131691
 20
369.6516928016801
 30
0.0
 11
-209.739843391686
 21
360.453292571023
 31
0.0
  0
LINE
  5
C8EE
330
1F
100
AcDbEntity
  8
_0-0_
100
AcDbLine
 10
-209.739843391686
 20
360.453292571023
 30
0.0
 11
-209.909676003979
 21
351.0476473855224
 31
0.0
  0
LINE
  5
C8EF
330
1F
100
AcDbEntity
  8
_0-0_
100
AcDbLine
 10
-209.909676003979
 20
351.0476473855224
 30
0.0
 11
-209.3284356905849
 21
341.720543014655
 31
0.0
  0
LINE
  5
C8F0
330
1F
100
AcDbEntity
  8
_0-0_
100
AcDbLine
 10
-209.3284356905849
 20
341.720543014655
 30
0.0
 11
-208.0137831443051
 21
332.7553788049861
 31
0.0
  0
LINE
  5
C8F1
330
1F
100
AcDbEntity
  8
_0-0_
100
AcDbLine
 10
-208.0137831443051
 20
332.7553788049861
 30
0.0
 11
-206.0056634175107
 21
324.4245567344353
 31
0.0
  0
LINE
  5
C8F2
330
1F
100
AcDbEntity
  8
_0-0_
100
AcDbLine
 10
-206.0056634175107
 20
324.4245567344353
 30
0.0
 11
-203.3650922119441
 21
316.9812046160162
 31
0.0
  0
LINE
  5
C8F3
330
1F
100
AcDbEntity
  8
_0-0_
100
AcDbLine
 10
-203.3650922119441
 20
316.9812046160162
 30
0.0
 11
-200.1723019474921
 21
310.6514849373293
 31
0.0
  0
LINE
  5
C8F4
330
1F
100
AcDbEntity
  8
_0-0_
100
AcDbLine
 10
-200.1723019474921
 20
310.6514849373293
 30
0.0
 11
-196.5243039407103
 21
305.627723027819
 31
0.0
  0
LINE
  5
C8F5
330
1F
100
AcDbEntity
  8
_0-0_
100
AcDbLine
 10
-196.5243039407103
 20
305.627723027819
 30
0.0
 11
-192.531940765059
 21
302.0625633509592
 31
0.0
  0
LINE
  5
C8F6
330
1F
100
AcDbEntity
  8
_0-0_
100
AcDbLine
 10
-192.531940765059
 20
302.0625633509592
 30
0.0
 11
-188.316518355397
 21
300.0643314794738
 31
0.0
  0
LINE
  5
C8F7
330
1F
100
AcDbEntity
  8
_0-0_
100
AcDbLine
 10
-188.316518355397
 20
300.0643314794738
 30
0.0
 11
-184.0061201885353
 21
299.6937426776235
 31
0.0
  0
LINE
  5
C8F8
330
1F
100
AcDbEntity
  8
_0-0_
100
AcDbLine
 10
-184.0061201885353
 20
299.6937426776235
 30
0.0
 11
-182.6079918878554
 21
299.9267292364016
 31
0.0
  0
LINE
  5
C8F9
330
1F
100
AcDbEntity
  8
_0-0_
100
AcDbLine
 10
-182.5711943171971
 20
299.9352158871486
 30
0.0
 11
-178.337805629407
 21
301.7435762662624
 31
0.0
  0
LINE
  5
C8FA
330
1F
100
AcDbEntity
  8
_0-0_
100
AcDbLine
 10
-178.337805629407
 20
301.7435762662624
 30
0.0
 11
-174.3126393211234
 21
305.1285567119039
 31
0.0
  0
LINE
  5
C8FB
330
1F
100
AcDbEntity
  8
_0-0_
100
AcDbLine
 10
-174.3126393211234
 20
305.1285567119039
 30
0.0
 11
-170.617998033792
 21
309.9873063061141
 31
0.0
  0
LINE
  5
C8FC
330
1F
100
AcDbEntity
  8
_0-0_
100
AcDbLine
 10
-170.617998033792
 20
309.9873063061141
 30
0.0
 11
-167.3661415733495
 21
316.1721944011203
 31
0.0
  0
LINE
  5
C8FD
330
1F
100
AcDbEntity
  8
_0-0_
100
AcDbLine
 10
-167.3661415733495
 20
316.1721944011203
 30
0.0
 11
-164.6558759528275
 21
323.4952963018595
 31
0.0
  0
LINE
  5
C8FE
330
1F
100
AcDbEntity
  8
_0-0_
100
AcDbLine
 10
-164.6558759528275
 20
323.4952963018595
 30
0.0
 11
-162.569551221645
 21
331.7341032627457
 31
0.0
  0
LINE
  5
C8FF
330
1F
100
AcDbEntity
  8
_0-0_
100
AcDbLine
 10
-162.569551221645
 20
331.7341032627457
 30
0.0
 11
-161.1705593010281
 21
340.6382833033101
 31
0.0
  0
LINE
  5
C900
330
1F
100
AcDbEntity
  8
_0-0_
100
AcDbLine
 10
-161.1705593010281
 20
340.6382833033101
 30
0.0
 11
-160.5014078525598
 21
349.9372874187532
 31
0.0
  0
LINE
  5
C901
330
1F
100
AcDbEntity
  8
_0-0_
100
AcDbLine
 10
-160.5014078525598
 20
349.9372874187532
 30
0.0
 11
-160.5824287043958
 21
359.3485700745498
 31
0.0
  0
LINE
  5
C902
330
1F
100
AcDbEntity
  8
_0-0_
100
AcDbLine
 10
-160.5824287043958
 20
359.3485700745498
 30
0.0
 11
-161.4111600789506
 21
368.5861742095419
 31
0.0
  0
LINE
  5
C903
330
1F
100
AcDbEntity
  8
_0-0_
100
AcDbLine
 10
-161.4111600789506
 20
368.5861742095419
 30
0.0
 11
-162.9624213927677
 21
377.3694198965418
 31
0.0
  0
LINE
  5
C904
330
1F
100
AcDbEntity
  8
_0-0_
100
AcDbLine
 10
-162.9624213927677
 20
377.3694198965418
 30
0.0
 11
-165.1890783558021
 21
385.4314326598869
 31
0.0
  0
LINE
  5
C905
330
1F
100
AcDbEntity
  8
_0-0_
100
AcDbLine
 10
-165.1890783558021
 20
385.4314326598869
 30
0.0
 11
-168.0234751229752
 21
392.527252321338
 31
0.0
  0
LINE
  5
C906
330
1F
100
AcDbEntity
  8
_0-0_
100
AcDbLine
 10
-168.0234751229752
 20
392.527252321338
 30
0.0
 11
-171.3794899827903
 21
398.4412759911393
 31
0.0
  0
LINE
  5
C907
330
1F
100
AcDbEntity
  8
_0-0_
100
AcDbLine
 10
-171.3794899827903
 20
398.4412759911393
 30
0.0
 11
-175.1551521219578
 21
402.9938090527248
 31
0.0
  0
LINE
  5
C908
330
1F
100
AcDbEntity
  8
_0-0_
100
AcDbLine
 10
-175.1551521219578
 20
402.9938090527248
 30
0.0
 11
-179.2357399569553
 21
406.0465250927113
 31
0.0
  0
LINE
  5
C909
330
1F
100
AcDbEntity
  8
_0-0_
100
AcDbLine
 10
-179.2357399569553
 20
406.0465250927113
 30
0.0
 11
-182.5711943171971
 21
407.3298746814309
 31
0.0
  0
LINE
  5
C90A
330
1F
100
AcDbEntity
  8
_0-0_
100
AcDbLine
 10
-182.0714353128203
 20
404.9128167913231
 30
0.0
 11
-186.0937120419257
 21
404.4471638986142
 31
0.0
  0
LINE
  5
C90B
330
1F
100
AcDbEntity
  8
_0-0_
100
AcDbLine
 10
-186.0937120419257
 20
404.4471638986142
 30
0.0
 11
-190.0184690007975
 21
402.4375345327467
 31
0.0
  0
LINE
  5
C90C
330
1F
100
AcDbEntity
  8
_0-0_
100
AcDbLine
 10
-190.0184690007975
 20
402.4375345327467
 30
0.0
 11
-193.7264544352638
 21
398.9449902650808
 31
0.0
  0
LINE
  5
C90D
330
1F
100
AcDbEntity
  8
_0-0_
100
AcDbLine
 10
-193.7264544352638
 20
398.9449902650808
 30
0.0
 11
-197.1050030842284
 21
394.0756502858771
 31
0.0
  0
LINE
  5
C90E
330
1F
100
AcDbEntity
  8
_0-0_
100
AcDbLine
 10
-197.1050030842284
 20
394.0756502858771
 30
0.0
 11
-200.0514594566218
 21
387.9774670263989
 31
0.0
  0
LINE
  5
C90F
330
1F
100
AcDbEntity
  8
_0-0_
100
AcDbLine
 10
-200.0514594566218
 20
387.9774670263989
 30
0.0
 11
-202.4762969665474
 21
380.8357306991559
 31
0.0
  0
LINE
  5
C910
330
1F
100
AcDbEntity
  8
_0-0_
100
AcDbLine
 10
-202.4762969665474
 20
380.8357306991559
 30
0.0
 11
-204.305838153293
 21
372.8674393485578
 31
0.0
  0
LINE
  5
C911
330
1F
100
AcDbEntity
  8
_0-0_
100
AcDbLine
 10
-204.305838153293
 20
372.8674393485578
 30
0.0
 11
-205.4844933336913
 21
364.3147054751432
 31
0.0
  0
LINE
  5
C912
330
1F
100
AcDbEntity
  8
_0-0_
100
AcDbLine
 10
-205.4844933336913
 20
364.3147054751432
 30
0.0
 11
-205.976449666515
 21
355.4373995697633
 31
0.0
  0
LINE
  5
C913
330
1F
100
AcDbEntity
  8
_0-0_
100
AcDbLine
 10
-205.976449666515
 20
355.4373995697633
 30
0.0
 11
-205.7667593075325
 21
346.5052540802196
 31
0.0
  0
LINE
  5
C914
330
1F
100
AcDbEntity
  8
_0-0_
100
AcDbLine
 10
-205.7667593075325
 20
346.5052540802196
 30
0.0
 11
-204.8617935921939
 21
337.7896677273282
 31
0.0
  0
LINE
  5
C915
330
1F
100
AcDbEntity
  8
_0-0_
100
AcDbLine
 10
-204.8617935921939
 20
337.7896677273282
 30
0.0
 11
-203.2890494458241
 21
329.5554591921223
 31
0.0
  0
LINE
  5
C916
330
1F
100
AcDbEntity
  8
_0-0_
100
AcDbLine
 10
-203.2890494458241
 20
329.5554591921223
 30
0.0
 11
-201.0963139034641
 21
322.0528207342334
 31
0.0
  0
LINE
  5
C917
330
1F
100
AcDbEntity
  8
_0-0_
100
AcDbLine
 10
-201.0963139034641
 20
322.0528207342334
 30
0.0
 11
-198.3502121249905
 21
315.5097162266863
 31
0.0
  0
LINE
  5
C918
330
1F
100
AcDbEntity
  8
_0-0_
100
AcDbLine
 10
-198.3502121249905
 20
315.5097162266863
 30
0.0
 11
-195.134183023348
 21
310.1249545889721
 31
0.0
  0
LINE
  5
C919
330
1F
100
AcDbEntity
  8
_0-0_
100
AcDbLine
 10
-195.134183023348
 20
310.1249545889721
 30
0.0
 11
-191.5459440154011
 21
306.0621490786323
 31
0.0
  0
LINE
  5
C91A
330
1F
100
AcDbEntity
  8
_0-0_
100
AcDbLine
 10
-191.5459440154011
 20
306.0621490786323
 30
0.0
 11
-187.694521927669
 21
303.444745985219
 31
0.0
  0
LINE
  5
C91B
330
1F
100
AcDbEntity
  8
_0-0_
100
AcDbLine
 10
-187.694521927669
 20
303.444745985219
 30
0.0
 11
-183.6969402713739
 21
302.3522737772564
 31
0.0
  0
LINE
  5
C91C
330
1F
100
AcDbEntity
  8
_0-0_
100
AcDbLine
 10
-183.6969402713739
 20
302.3522737772564
 30
0.0
 11
-182.5711943171971
 21
302.3252295927002
 31
0.0
  0
LINE
  5
C91D
330
1F
100
AcDbEntity
  8
_0-0_
100
AcDbLine
 10
-182.5711943171971
 20
302.3252295927002
 30
0.0
 11
-178.563905442609
 21
303.2253980262797
 31
0.0
  0
LINE
  5
C91E
330
1F
100
AcDbEntity
  8
_0-0_
100
AcDbLine
 10
-178.563905442609
 20
303.2253980262797
 30
0.0
 11
-174.6878861610419
 21
305.6571621220464
 31
0.0
  0
LINE
  5
C91F
330
1F
100
AcDbEntity
  8
_0-0_
100
AcDbLine
 10
-174.6878861610419
 20
305.6571621220464
 30
0.0
 11
-171.0609073570051
 21
309.5466339584827
 31
0.0
  0
LINE
  5
C920
330
1F
100
AcDbEntity
  8
_0-0_
100
AcDbLine
 10
-171.0609073570051
 20
309.5466339584827
 30
0.0
 11
-169.8279717624532
 21
311.2969967097504
 31
0.0
  0
LINE
  5
C921
330
1F
100
AcDbEntity
  8
_0-0_
100
AcDbLine
 10
-169.8279717624532
 20
395.9680938588294
 30
0.0
 11
-173.3368096798019
 21
400.3595962651645
 31
0.0
  0
LINE
  5
C922
330
1F
100
AcDbEntity
  8
_0-0_
100
AcDbLine
 10
-173.3368096798019
 20
400.3595962651645
 30
0.0
 11
-177.1357398498865
 21
403.3313208724742
 31
0.0
  0
LINE
  5
C923
330
1F
100
AcDbEntity
  8
_0-0_
100
AcDbLine
 10
-177.1357398498865
 20
403.3313208724742
 30
0.0
 11
-181.1093337018398
 21
404.792973332331
 31
0.0
  0
LINE
  5
C924
330
1F
100
AcDbEntity
  8
_0-0_
100
AcDbLine
 10
-181.1093337018398
 20
404.792973332331
 30
0.0
 11
-182.5711943171971
 21
404.9398609758793
 31
0.0
  0
LINE
  5
C925
330
1F
100
AcDbEntity
  8
_0-0_
100
AcDbLine
 10
227.5345237110141
 20
413.3137425167717
 30
0.0
 11
228.3570017816448
 21
414.8650338202676
 31
0.0
  0
LINE
  5
C926
330
1F
100
AcDbEntity
  8
_0-0_
100
AcDbLine
 10
228.3570017816448
 20
414.8650338202676
 30
0.0
 11
228.8882772385725
 21
416.5307990531448
 31
0.0
  0
LINE
  5
C927
330
1F
100
AcDbEntity
  8
_0-0_
100
AcDbLine
 10
228.8882772385725
 20
416.5307990531448
 30
0.0
 11
229.1122075458779
 21
418.2604247817205
 31
0.0
  0
LINE
  5
C928
330
1F
100
AcDbEntity
  8
_0-0_
100
AcDbLine
 10
229.1122075458779
 20
418.2604247817205
 30
0.0
 11
229.0219886944869
 21
420.001357203465
 31
0.0
  0
LINE
  5
C929
330
1F
100
AcDbEntity
  8
_0-0_
100
AcDbLine
 10
229.0219886944869
 20
420.001357203465
 30
0.0
 11
228.6203619385469
 21
421.7006989676972
 31
0.0
  0
LINE
  5
C92A
330
1F
100
AcDbEntity
  8
_0-0_
100
AcDbLine
 10
228.6203619385469
 20
421.7006989676972
 30
0.0
 11
227.9195305038036
 21
423.3068164348199
 31
0.0
  0
LINE
  5
C92B
330
1F
100
AcDbEntity
  8
_0-0_
100
AcDbLine
 10
227.9195305038036
 20
423.3068164348199
 30
0.0
 11
227.5345237110141
 21
423.9513480518057
 31
0.0
  0
LINE
  5
C92C
330
1F
100
AcDbEntity
  8
_0-0_
100
AcDbLine
 10
213.1610364713469
 20
428.6325452842889
 30
0.0
 11
211.4461872470265
 21
428.4806228144112
 31
0.0
  0
LINE
  5
C92D
330
1F
100
AcDbEntity
  8
_0-0_
100
AcDbLine
 10
211.4461872470265
 20
428.4806228144112
 30
0.0
 11
209.783442848631
 21
428.029471492148
 31
0.0
  0
LINE
  5
C92E
330
1F
100
AcDbEntity
  8
_0-0_
100
AcDbLine
 10
209.783442848631
 20
428.029471492148
 30
0.0
 11
208.2233249233175
 21
427.2927993221332
 31
0.0
  0
LINE
  5
C92F
330
1F
100
AcDbEntity
  8
_0-0_
100
AcDbLine
 10
208.2233249233175
 20
427.2927993221332
 30
0.0
 11
206.8132368647882
 21
426.2929897154788
 31
0.0
  0
LINE
  5
C930
330
1F
100
AcDbEntity
  8
_0-0_
100
AcDbLine
 10
206.8132368647882
 20
426.2929897154788
 30
0.0
 11
205.5960234851623
 21
425.0604213811546
 31
0.0
  0
LINE
  5
C931
330
1F
100
AcDbEntity
  8
_0-0_
100
AcDbLine
 10
205.5960234851623
 20
425.0604213811546
 30
0.0
 11
204.6086691970404
 21
423.6325452842889
 31
0.0
  0
LINE
  5
C932
330
1F
100
AcDbEntity
  8
_0-0_
100
AcDbLine
 10
204.6086691970404
 20
423.6325452842889
 30
0.0
 11
203.8811742608418
 21
422.0527467175458
 31
0.0
  0
LINE
  5
C933
330
1F
100
AcDbEntity
  8
_0-0_
100
AcDbLine
 10
203.8811742608418
 20
422.0527467175458
 30
0.0
 11
203.4356432420723
 21
420.3690270609583
 31
0.0
  0
LINE
  5
C934
330
1F
100
AcDbEntity
  8
_0-0_
100
AcDbLine
 10
203.4356432420723
 20
420.3690270609583
 30
0.0
 11
203.2856133752882
 21
418.6325452842888
 31
0.0
  0
LINE
  5
C935
330
1F
100
AcDbEntity
  8
_0-0_
100
AcDbLine
 10
203.2856133752882
 20
418.6325452842888
 30
0.0
 11
203.4356432420723
 21
416.8960635076198
 31
0.0
  0
LINE
  5
C936
330
1F
100
AcDbEntity
  8
_0-0_
100
AcDbLine
 10
203.4356432420723
 20
416.8960635076198
 30
0.0
 11
203.8811742608418
 21
415.2123438510328
 31
0.0
  0
LINE
  5
C937
330
1F
100
AcDbEntity
  8
_0-0_
100
AcDbLine
 10
203.8811742608418
 20
415.2123438510328
 30
0.0
 11
204.6086691970404
 21
413.6325452842888
 31
0.0
  0
LINE
  5
C938
330
1F
100
AcDbEntity
  8
_0-0_
100
AcDbLine
 10
204.6086691970404
 20
413.6325452842888
 30
0.0
 11
205.5960234851623
 21
412.2046691874236
 31
0.0
  0
LINE
  5
C939
330
1F
100
AcDbEntity
  8
_0-0_
100
AcDbLine
 10
205.5960234851623
 20
412.2046691874236
 30
0.0
 11
206.8132368647882
 21
410.9721008530994
 31
0.0
  0
LINE
  5
C93A
330
1F
100
AcDbEntity
  8
_0-0_
100
AcDbLine
 10
206.8132368647882
 20
410.9721008530994
 30
0.0
 11
208.2233249233175
 21
409.9722912464446
 31
0.0
  0
LINE
  5
C93B
330
1F
100
AcDbEntity
  8
_0-0_
100
AcDbLine
 10
208.2233249233175
 20
409.9722912464446
 30
0.0
 11
209.783442848631
 21
409.23561907643
 31
0.0
  0
LINE
  5
C93C
330
1F
100
AcDbEntity
  8
_0-0_
100
AcDbLine
 10
209.783442848631
 20
409.23561907643
 30
0.0
 11
211.4461872470265
 21
408.7844677541668
 31
0.0
  0
LINE
  5
C93D
330
1F
100
AcDbEntity
  8
_0-0_
100
AcDbLine
 10
211.4461872470265
 20
408.7844677541668
 30
0.0
 11
213.1610364713469
 21
408.6325452842888
 31
0.0
  0
ARC
  5
C93E
330
1F
100
AcDbEntity
  8
_0-0_
100
AcDbCircle
 10
214.9569616581216
 20
415.7779195908949
 30
0.0
 40
15.0
100
AcDbArc
 50
33.01750435765006
 51
87.9999999999964
  0
ARC
  5
C93F
330
1F
100
AcDbEntity
  8
_0-0_
100
AcDbCircle
 10
214.9569616581216
 20
421.4871709776839
 30
0.0
 40
15.0
100
AcDbArc
 50
272.0000000000036
 51
326.9824956423499
  0
LINE
  5
C940
330
1F
100
AcDbEntity
  8
_0-0_
100
AcDbLine
 10
198.2206380532916
 20
405.5809130704403
 30
0.0
 11
215.4804541086589
 21
406.4963085723975
 31
0.0
  0
LINE
  5
C941
330
1F
100
AcDbEntity
  8
_0-0_
100
AcDbLine
 10
215.4804541086589
 20
430.7687819961813
 30
0.0
 11
198.2206380532916
 21
431.6841774981384
 31
0.0
  0
TEXT
  5
C942
330
1F
100
AcDbEntity
  8
SUNPOU
100
AcDbText
 10
315.2110062039212
 20
340.6325452842898
 30
0.0
 40
16.0
  1
260
 50
90.0
100
AcDbText
  0
TEXT
  5
C943
330
1F
100
AcDbEntity
  8
SUNPOU
100
AcDbText
 10
-98.7793619467609
 20
529.8353578878838
 30
0.0
 40
16.0
  1
630
100
AcDbText
  0
LINE
  5
C944
330
1F
100
AcDbEntity
  8
_0-0_
  6
CENTER2
100
AcDbLine
 10
229.2206380532916
 20
353.6325452842894
 30
0.0
 11
-420.4514523157727
 21
353.6325452842894
 31
0.0
  0
LINE
  5
C945
330
1F
100
AcDbEntity
  8
_0-0_
  6
CENTER2
100
AcDbLine
 10
-420.4514523157727
 20
-110.5185633359269
 30
0.0
 11
229.2206380532919
 21
-110.5185633359269
 31
0.0
  0
TEXT
  5
C946
330
1F
100
AcDbEntity
  8
TEXT
 62
     3
380
     1
100
AcDbText
 10
-1039.486151620943
 20
-310.9774242859346
 30
0.0
 40
12.0
  1
260*420*630mm
100
AcDbText
  0
TEXT
  5
C947
330
1F
100
AcDbEntity
  8
TEXT
 62
     3
380
     1
100
AcDbText
 10
-1039.486151620943
 20
-91.18257475598943
 30
0.0
 40
12.0
  1
ＳＢ－２０Ｊ
100
AcDbText
  0
LINE
  5
C948
330
1F
100
AcDbEntity
  8
_0-0_
100
AcDbLine
 10
-728.0370172849959
 20
385.3182583596147
 30
0.0
 11
-728.0370172849959
 21
385.3182583596147
 31
0.0
  0
LINE
  5
C949
330
1F
100
AcDbEntity
  8
_0-0_
100
AcDbLine
 10
-728.0370172849959
 20
385.3182583596147
 30
0.0
 11
-728.9205499271599
 21
385.2166873552962
 31
0.0
  0
LINE
  5
C94A
330
1F
100
AcDbEntity
  8
_0-0_
100
AcDbLine
 10
-728.9205499271599
 20
385.2166873552962
 30
0.0
 11
-729.7772368770812
 21
384.9150605259099
 31
0.0
  0
LINE
  5
C94B
330
1F
100
AcDbEntity
  8
_0-0_
100
AcDbLine
 10
-729.7772368770812
 20
384.9150605259099
 30
0.0
 11
-730.5810481352904
 21
384.4225426500354
 31
0.0
  0
LINE
  5
C94C
330
1F
100
AcDbEntity
  8
_0-0_
100
AcDbLine
 10
-730.5810481352904
 20
384.4225426500354
 30
0.0
 11
-731.3075603034554
 21
383.7540986341057
 31
0.0
  0
LINE
  5
C94D
330
1F
100
AcDbEntity
  8
_0-0_
100
AcDbLine
 10
-731.3075603034554
 20
383.7540986341057
 30
0.0
 11
-731.9346986769787
 21
382.9300388112961
 31
0.0
  0
LINE
  5
C94E
330
1F
100
AcDbEntity
  8
_0-0_
100
AcDbLine
 10
-731.9346986769787
 20
382.9300388112961
 30
0.0
 11
-732.4434079737288
 21
381.9754018223275
 31
0.0
  0
LINE
  5
C94F
330
1F
100
AcDbEntity
  8
_0-0_
100
AcDbLine
 10
-732.4434079737288
 20
381.9754018223275
 30
0.0
 11
-732.8182313191428
 21
380.9191938290407
 31
0.0
  0
LINE
  5
C950
330
1F
100
AcDbEntity
  8
_0-0_
100
AcDbLine
 10
-732.8182313191428
 20
380.9191938290407
 30
0.0
 11
-733.0477798955406
 21
379.7935071768441
 31
0.0
  0
LINE
  5
C951
330
1F
100
AcDbEntity
  8
_0-0_
100
AcDbLine
 10
-733.0477798955406
 20
379.7935071768441
 30
0.0
 11
-733.125078985585
 21
378.6325452850404
 31
0.0
  0
LINE
  5
C952
330
1F
100
AcDbEntity
  8
_0-0_
100
AcDbLine
 10
-733.125078985585
 20
378.6325452850404
 30
0.0
 11
-733.0477798955406
 21
377.4715833932366
 31
0.0
  0
LINE
  5
C953
330
1F
100
AcDbEntity
  8
_0-0_
100
AcDbLine
 10
-733.0477798955406
 20
377.4715833932366
 30
0.0
 11
-732.8182313191428
 21
376.3458967410402
 31
0.0
  0
LINE
  5
C954
330
1F
100
AcDbEntity
  8
_0-0_
100
AcDbLine
 10
-732.8182313191428
 20
376.3458967410402
 30
0.0
 11
-732.4434079737288
 21
375.2896887477532
 31
0.0
  0
LINE
  5
C955
330
1F
100
AcDbEntity
  8
_0-0_
100
AcDbLine
 10
-732.4434079737288
 20
375.2896887477532
 30
0.0
 11
-731.9346986769787
 21
374.3350517587846
 31
0.0
  0
LINE
  5
C956
330
1F
100
AcDbEntity
  8
_0-0_
100
AcDbLine
 10
-731.9346986769787
 20
374.3350517587846
 30
0.0
 11
-731.3075603034554
 21
373.510991935975
 31
0.0
  0
LINE
  5
C957
330
1F
100
AcDbEntity
  8
_0-0_
100
AcDbLine
 10
-731.3075603034554
 20
373.510991935975
 30
0.0
 11
-730.5810481352904
 21
372.8425479200455
 31
0.0
  0
LINE
  5
C958
330
1F
100
AcDbEntity
  8
_0-0_
100
AcDbLine
 10
-730.5810481352904
 20
372.8425479200455
 30
0.0
 11
-729.7772368770812
 21
372.3500300441708
 31
0.0
  0
LINE
  5
C959
330
1F
100
AcDbEntity
  8
_0-0_
100
AcDbLine
 10
-729.7772368770812
 20
372.3500300441708
 30
0.0
 11
-728.9205499271599
 21
372.0484032147847
 31
0.0
  0
LINE
  5
C95A
330
1F
100
AcDbEntity
  8
_0-0_
100
AcDbLine
 10
-728.9205499271599
 20
372.0484032147847
 30
0.0
 11
-728.0370172849959
 21
371.9468322104658
 31
0.0
  0
LINE
  5
C95B
330
1F
100
AcDbEntity
  8
_0-0_
100
AcDbLine
 10
-728.0370172849959
 20
371.9468322104658
 30
0.0
 11
-727.1534846428314
 21
372.0484032147847
 31
0.0
  0
LINE
  5
C95C
330
1F
100
AcDbEntity
  8
_0-0_
100
AcDbLine
 10
-727.1534846428314
 20
372.0484032147847
 30
0.0
 11
-726.2967976929103
 21
372.3500300441708
 31
0.0
  0
LINE
  5
C95D
330
1F
100
AcDbEntity
  8
_0-0_
100
AcDbLine
 10
-726.2967976929103
 20
372.3500300441708
 30
0.0
 11
-725.4929864347012
 21
372.8425479200455
 31
0.0
  0
LINE
  5
C95E
330
1F
100
AcDbEntity
  8
_0-0_
100
AcDbLine
 10
-725.4929864347012
 20
372.8425479200455
 30
0.0
 11
-724.7664742665363
 21
373.510991935975
 31
0.0
  0
LINE
  5
C95F
330
1F
100
AcDbEntity
  8
_0-0_
100
AcDbLine
 10
-724.7664742665363
 20
373.510991935975
 30
0.0
 11
-724.1393358930129
 21
374.3350517587846
 31
0.0
  0
LINE
  5
C960
330
1F
100
AcDbEntity
  8
_0-0_
100
AcDbLine
 10
-724.1393358930129
 20
374.3350517587846
 30
0.0
 11
-723.6306265962629
 21
375.2896887477532
 31
0.0
  0
LINE
  5
C961
330
1F
100
AcDbEntity
  8
_0-0_
100
AcDbLine
 10
-723.6306265962629
 20
375.2896887477532
 30
0.0
 11
-723.2558032508489
 21
376.3458967410402
 31
0.0
  0
LINE
  5
C962
330
1F
100
AcDbEntity
  8
_0-0_
100
AcDbLine
 10
-723.2558032508489
 20
376.3458967410402
 30
0.0
 11
-723.0262546744508
 21
377.4715833932366
 31
0.0
  0
LINE
  5
C963
330
1F
100
AcDbEntity
  8
_0-0_
100
AcDbLine
 10
-723.0262546744508
 20
377.4715833932366
 30
0.0
 11
-722.9489555844066
 21
378.6325452850404
 31
0.0
  0
LINE
  5
C964
330
1F
100
AcDbEntity
  8
_0-0_
100
AcDbLine
 10
-722.9489555844066
 20
378.6325452850404
 30
0.0
 11
-723.0262546744508
 21
379.7935071768441
 31
0.0
  0
LINE
  5
C965
330
1F
100
AcDbEntity
  8
_0-0_
100
AcDbLine
 10
-723.0262546744508
 20
379.7935071768441
 30
0.0
 11
-723.2558032508489
 21
380.9191938290407
 31
0.0
  0
LINE
  5
C966
330
1F
100
AcDbEntity
  8
_0-0_
100
AcDbLine
 10
-723.2558032508489
 20
380.9191938290407
 30
0.0
 11
-723.6306265962629
 21
381.9754018223275
 31
0.0
  0
LINE
  5
C967
330
1F
100
AcDbEntity
  8
_0-0_
100
AcDbLine
 10
-723.6306265962629
 20
381.9754018223275
 30
0.0
 11
-724.1393358930129
 21
382.9300388112961
 31
0.0
  0
LINE
  5
C968
330
1F
100
AcDbEntity
  8
_0-0_
100
AcDbLine
 10
-724.1393358930129
 20
382.9300388112961
 30
0.0
 11
-724.7664742665363
 21
383.7540986341057
 31
0.0
  0
LINE
  5
C969
330
1F
100
AcDbEntity
  8
_0-0_
100
AcDbLine
 10
-724.7664742665363
 20
383.7540986341057
 30
0.0
 11
-725.4929864347011
 21
384.4225426500354
 31
0.0
  0
LINE
  5
C96A
330
1F
100
AcDbEntity
  8
_0-0_
100
AcDbLine
 10
-725.4929864347011
 20
384.4225426500354
 30
0.0
 11
-726.2967976929103
 21
384.9150605259099
 31
0.0
  0
LINE
  5
C96B
330
1F
100
AcDbEntity
  8
_0-0_
100
AcDbLine
 10
-726.2967976929103
 20
384.9150605259099
 30
0.0
 11
-727.1534846428314
 21
385.2166873552962
 31
0.0
  0
LINE
  5
C96C
330
1F
100
AcDbEntity
  8
_0-0_
100
AcDbLine
 10
-727.1534846428314
 20
385.2166873552962
 30
0.0
 11
-728.0370172849959
 21
385.3182583596147
 31
0.0
  0
LINE
  5
C96D
330
1F
100
AcDbEntity
  8
_0-0_
100
AcDbLine
 10
-728.0370172849959
 20
385.3182583596147
 30
0.0
 11
-728.0370172849959
 21
385.3182583596147
 31
0.0
  0
LINE
  5
C96E
330
1F
100
AcDbEntity
  8
_0-0_
100
AcDbLine
 10
-733.8221057721747
 20
385.6325452850403
 30
0.0
 11
-728.0370172849959
 21
385.3182583596147
 31
0.0
  0
LINE
  5
C96F
330
1F
100
AcDbEntity
  8
_0-0_
100
AcDbLine
 10
-733.8221057721747
 20
371.6325452850404
 30
0.0
 11
-728.0370172849959
 21
371.9468322104658
 31
0.0
  0
LINE
  5
C970
330
1F
100
AcDbEntity
  8
_0-0_
100
AcDbLine
 10
-733.8221057721747
 20
385.6325452850403
 30
0.0
 11
-733.8221057721747
 21
385.6325452850403
 31
0.0
  0
LINE
  5
C971
330
1F
100
AcDbEntity
  8
_0-0_
100
AcDbLine
 10
-733.8221057721747
 20
385.6325452850403
 30
0.0
 11
-734.7600203120426
 21
385.5261995561259
 31
0.0
  0
LINE
  5
C972
330
1F
100
AcDbEntity
  8
_0-0_
100
AcDbLine
 10
-734.7600203120426
 20
385.5261995561259
 30
0.0
 11
-735.669436793224
 21
385.2103936305416
 31
0.0
  0
LINE
  5
C973
330
1F
100
AcDbEntity
  8
_0-0_
100
AcDbLine
 10
-735.669436793224
 20
385.2103936305416
 30
0.0
 11
-736.5227230561252
 21
384.6947231115314
 31
0.0
  0
LINE
  5
C974
330
1F
100
AcDbEntity
  8
_0-0_
100
AcDbLine
 10
-736.5227230561252
 20
384.6947231115314
 30
0.0
 11
-737.2939524294324
 21
383.9948563868731
 31
0.0
  0
LINE
  5
C975
330
1F
100
AcDbEntity
  8
_0-0_
100
AcDbLine
 10
-737.2939524294324
 20
383.9948563868731
 30
0.0
 11
-737.9596914988976
 21
383.1320585528463
 31
0.0
  0
LINE
  5
C976
330
1F
100
AcDbEntity
  8
_0-0_
100
AcDbLine
 10
-737.9596914988976
 20
383.1320585528463
 30
0.0
 11
-738.4997121197759
 21
382.1325452850404
 31
0.0
  0
LINE
  5
C977
330
1F
100
AcDbEntity
  8
_0-0_
100
AcDbLine
 10
-738.4997121197759
 20
382.1325452850404
 30
0.0
 11
-738.8976060387651
 21
381.0266862883198
 31
0.0
  0
LINE
  5
C978
330
1F
100
AcDbEntity
  8
_0-0_
100
AcDbLine
 10
-738.8976060387651
 20
381.0266862883198
 30
0.0
 11
-739.1412834504812
 21
379.848082528709
 31
0.0
  0
LINE
  5
C979
330
1F
100
AcDbEntity
  8
_0-0_
100
AcDbLine
 10
-739.1412834504812
 20
379.848082528709
 30
0.0
 11
-739.223340340076
 21
378.6325452850404
 31
0.0
  0
LINE
  5
C97A
330
1F
100
AcDbEntity
  8
_0-0_
100
AcDbLine
 10
-739.223340340076
 20
378.6325452850404
 30
0.0
 11
-739.1412834504812
 21
377.4170080413719
 31
0.0
  0
LINE
  5
C97B
330
1F
100
AcDbEntity
  8
_0-0_
100
AcDbLine
 10
-739.1412834504812
 20
377.4170080413719
 30
0.0
 11
-738.8976060387651
 21
376.2384042817607
 31
0.0
  0
LINE
  5
C97C
330
1F
100
AcDbEntity
  8
_0-0_
100
AcDbLine
 10
-738.8976060387651
 20
376.2384042817607
 30
0.0
 11
-738.4997121197759
 21
375.1325452850403
 31
0.0
  0
LINE
  5
C97D
330
1F
100
AcDbEntity
  8
_0-0_
100
AcDbLine
 10
-738.4997121197759
 20
375.1325452850403
 30
0.0
 11
-737.9596914988976
 21
374.1330320172346
 31
0.0
  0
LINE
  5
C97E
330
1F
100
AcDbEntity
  8
_0-0_
100
AcDbLine
 10
-737.9596914988976
 20
374.1330320172346
 30
0.0
 11
-737.2939524294324
 21
373.2702341832078
 31
0.0
  0
LINE
  5
C97F
330
1F
100
AcDbEntity
  8
_0-0_
100
AcDbLine
 10
-737.2939524294324
 20
373.2702341832078
 30
0.0
 11
-736.5227230561252
 21
372.5703674585493
 31
0.0
  0
LINE
  5
C980
330
1F
100
AcDbEntity
  8
_0-0_
100
AcDbLine
 10
-736.5227230561252
 20
372.5703674585493
 30
0.0
 11
-735.669436793224
 21
372.0546969395389
 31
0.0
  0
LINE
  5
C981
330
1F
100
AcDbEntity
  8
_0-0_
100
AcDbLine
 10
-735.669436793224
 20
372.0546969395389
 30
0.0
 11
-734.7600203120426
 21
371.738891013955
 31
0.0
  0
LINE
  5
C982
330
1F
100
AcDbEntity
  8
_0-0_
100
AcDbLine
 10
-734.7600203120426
 20
371.738891013955
 30
0.0
 11
-733.8221057721747
 21
371.6325452850404
 31
0.0
  0
LINE
  5
C983
330
1F
100
AcDbEntity
  8
_0-0_
100
AcDbLine
 10
-733.8221057721747
 20
371.6325452850404
 30
0.0
 11
-733.783005079758
 21
371.6327287092067
 31
0.0
  0
LINE
  5
C984
330
1F
100
AcDbEntity
  8
_0-0_
100
AcDbLine
 10
-730.9625462556438
 20
385.4771937860073
 30
0.0
 11
-730.9625462556438
 21
385.4771937860073
 31
0.0
  0
LINE
  5
C985
330
1F
100
AcDbEntity
  8
_0-0_
100
AcDbLine
 10
-730.9625462556438
 20
385.4771937860073
 30
0.0
 11
-731.9621967044211
 21
386.626916898289
 31
0.0
  0
LINE
  5
C986
330
1F
100
AcDbEntity
  8
_0-0_
100
AcDbLine
 10
-731.9621967044211
 20
386.626916898289
 30
0.0
 11
-733.100388809325
 21
387.5337350744487
 31
0.0
  0
LINE
  5
C987
330
1F
100
AcDbEntity
  8
_0-0_
100
AcDbLine
 10
-733.100388809325
 20
387.5337350744487
 30
0.0
 11
-734.3425391792008
 21
388.1700951030769
 31
0.0
  0
LINE
  5
C988
330
1F
100
AcDbEntity
  8
_0-0_
100
AcDbLine
 10
-734.3425391792008
 20
388.1700951030769
 30
0.0
 11
-735.6509057036187
 21
388.5166615067176
 31
0.0
  0
LINE
  5
C989
330
1F
100
AcDbEntity
  8
_0-0_
100
AcDbLine
 10
-735.6509057036187
 20
388.5166615067176
 30
0.0
 11
-736.9857343277995
 21
388.5629040405661
 31
0.0
  0
LINE
  5
C98A
330
1F
100
AcDbEntity
  8
_0-0_
100
AcDbLine
 10
-736.9857343277995
 20
388.5629040405661
 30
0.0
 11
-738.3064669594529
 21
388.3074176486323
 31
0.0
  0
LINE
  5
C98B
330
1F
100
AcDbEntity
  8
_0-0_
100
AcDbLine
 10
-738.3064669594529
 20
388.3074176486323
 30
0.0
 11
-739.5729738058896
 21
387.7579651556521
 31
0.0
  0
LINE
  5
C98C
330
1F
100
AcDbEntity
  8
_0-0_
100
AcDbLine
 10
-739.5729738058896
 20
387.7579651556521
 30
0.0
 11
-740.7467726974637
 21
386.931241397589
 31
0.0
  0
LINE
  5
C98D
330
1F
100
AcDbEntity
  8
_0-0_
100
AcDbLine
 10
-740.7467726974637
 20
386.931241397589
 30
0.0
 11
-741.7921983488261
 21
385.8523659574889
 31
0.0
  0
LINE
  5
C98E
330
1F
100
AcDbEntity
  8
_0-0_
100
AcDbLine
 10
-741.7921983488261
 20
385.8523659574889
 30
0.0
 11
-742.6774860305703
 21
384.5541199196619
 31
0.0
  0
LINE
  5
C98F
330
1F
100
AcDbEntity
  8
_0-0_
100
AcDbLine
 10
-742.6774860305703
 20
384.5541199196619
 30
0.0
 11
-743.3757367244642
 21
383.0759498330233
 31
0.0
  0
LINE
  5
C990
330
1F
100
AcDbEntity
  8
_0-0_
100
AcDbLine
 10
-743.3757367244642
 20
383.0759498330233
 30
0.0
 11
-743.8657344365058
 21
381.4627691476653
 31
0.0
  0
LINE
  5
C991
330
1F
100
AcDbEntity
  8
_0-0_
100
AcDbLine
 10
-743.8657344365058
 20
381.4627691476653
 30
0.0
 11
-744.1325908341651
 21
379.7635935424039
 31
0.0
  0
LINE
  5
C992
330
1F
100
AcDbEntity
  8
_0-0_
100
AcDbLine
 10
-744.1325908341651
 20
379.7635935424039
 30
0.0
 11
-744.1681976208355
 21
378.0300516081807
 31
0.0
  0
LINE
  5
C993
330
1F
100
AcDbEntity
  8
_0-0_
100
AcDbLine
 10
-744.1681976208355
 20
378.0300516081807
 30
0.0
 11
-743.9714729023217
 21
376.3148161394522
 31
0.0
  0
LINE
  5
C994
330
1F
100
AcDbEntity
  8
_0-0_
100
AcDbLine
 10
-743.9714729023217
 20
376.3148161394522
 30
0.0
 11
-743.5483940596482
 21
374.6700036979849
 31
0.0
  0
LINE
  5
C995
330
1F
100
AcDbEntity
  8
_0-0_
100
AcDbLine
 10
-743.5483940596482
 20
374.6700036979849
 30
0.0
 11
-742.9118161293616
 21
373.1455910774978
 31
0.0
  0
LINE
  5
C996
330
1F
100
AcDbEntity
  8
_0-0_
100
AcDbLine
 10
-742.9118161293616
 20
373.1455910774978
 30
0.0
 11
-742.0810812097495
 21
371.7878967840734
 31
0.0
  0
LINE
  5
C997
330
1F
100
AcDbEntity
  8
_0-0_
100
AcDbLine
 10
-742.0810812097495
 20
371.7878967840734
 30
0.0
 11
-741.0814307609723
 21
370.6381736717917
 31
0.0
  0
LINE
  5
C998
330
1F
100
AcDbEntity
  8
_0-0_
100
AcDbLine
 10
-741.0814307609723
 20
370.6381736717917
 30
0.0
 11
-739.9432386560684
 21
369.7313554956318
 31
0.0
  0
LINE
  5
C999
330
1F
100
AcDbEntity
  8
_0-0_
100
AcDbLine
 10
-739.9432386560684
 20
369.7313554956318
 30
0.0
 11
-738.7010882861926
 21
369.0949954670036
 31
0.0
  0
LINE
  5
C99A
330
1F
100
AcDbEntity
  8
_0-0_
100
AcDbLine
 10
-738.7010882861926
 20
369.0949954670036
 30
0.0
 11
-737.3927217617748
 21
368.7484290633634
 31
0.0
  0
LINE
  5
C99B
330
1F
100
AcDbEntity
  8
_0-0_
100
AcDbLine
 10
-737.3927217617748
 20
368.7484290633634
 30
0.0
 11
-736.0578931375941
 21
368.7021865295146
 31
0.0
  0
LINE
  5
C99C
330
1F
100
AcDbEntity
  8
_0-0_
100
AcDbLine
 10
-736.0578931375941
 20
368.7021865295146
 30
0.0
 11
-734.7371605059406
 21
368.9576729214484
 31
0.0
  0
LINE
  5
C99D
330
1F
100
AcDbEntity
  8
_0-0_
100
AcDbLine
 10
-734.7371605059406
 20
368.9576729214484
 30
0.0
 11
-733.4706536595039
 21
369.5071254144284
 31
0.0
  0
LINE
  5
C99E
330
1F
100
AcDbEntity
  8
_0-0_
100
AcDbLine
 10
-733.4706536595039
 20
369.5071254144284
 30
0.0
 11
-732.2968547679297
 21
370.3338491724919
 31
0.0
  0
LINE
  5
C99F
330
1F
100
AcDbEntity
  8
_0-0_
100
AcDbLine
 10
-732.2968547679297
 20
370.3338491724919
 30
0.0
 11
-731.2514291165674
 21
371.4127246125918
 31
0.0
  0
LINE
  5
C9A0
330
1F
100
AcDbEntity
  8
_0-0_
100
AcDbLine
 10
-731.2514291165674
 20
371.4127246125918
 30
0.0
 11
-730.9625462556438
 21
371.7878967840734
 31
0.0
  0
LINE
  5
C9A1
330
1F
100
AcDbEntity
  8
SUNPOU
100
AcDbLine
 10
217.1440414575786
 20
-171.2971705744573
 30
0.0
 11
224.0269586937911
 21
-181.1269951059252
 31
0.0
  0
LINE
  5
C9A2
330
1F
100
AcDbEntity
  8
SUNPOU
100
AcDbLine
 10
217.1440414575786
 20
-171.2971705744573
 30
0.0
 11
228.0197349020186
 21
-176.3685897153458
 31
0.0
  0
LINE
  5
C9A3
330
1F
100
AcDbEntity
  8
TEXT
 62
     3
100
AcDbLine
 10
285.0539161260408
 20
-228.2803213620592
 30
0.0
 11
217.1440414575786
 21
-171.2971705744573
 31
0.0
  0
LINE
  5
C9A4
330
1F
100
AcDbEntity
  8
TEXT
 62
     3
380
     1
100
AcDbLine
 10
285.0539161260408
 20
-228.2803213620592
 30
0.0
 11
481.76559612053
 21
-228.2803213620592
 31
0.0
  0
TEXT
  5
C9A5
330
1F
100
AcDbEntity
  8
TEXT
 62
     3
380
     1
100
AcDbText
 10
-1.950708281157858
 20
-394.9380731046431
 30
0.0
 40
16.0
  1
（アース線付）
100
AcDbText
  0
TEXT
  5
C9A6
330
1F
100
AcDbEntity
  8
TEXT
 62
     3
380
     1
100
AcDbText
 10
-41.03422572658087
 20
-416.6511383521003
 30
0.0
 40
12.0
  1
条件：電源コンセント：アース端子付
100
AcDbText
  0
TEXT
  5
C9A7
330
1F
100
AcDbEntity
  8
TEXT
 62
     3
380
     1
100
AcDbText
 10
248.539070156975
 20
-390.3585690827831
 30
0.0
 40
12.0
  1
SB-20J
100
AcDbText
  0
TEXT
  5
C9A8
330
1F
100
AcDbEntity
  8
TEXT
 62
     3
380
     1
100
AcDbText
 10
248.7156863156654
 20
-438.7007653306073
 30
0.0
 40
11.5
  1
SB20J-111-0-2
100
AcDbText
  0
LINE
  5
C9A9
330
1F
100
AcDbEntity
  8
WAKU
 62
     3
380
     1
100
AcDbLine
 10
400.0213510315075
 20
-471.9922283190125
 30
0.0
 11
400.0213510315075
 21
-423.9922283190126
 31
0.0
  0
TEXT
  5
C9AA
330
1F
100
AcDbEntity
  8
WAKU
 62
     3
380
     1
100
AcDbText
 10
403.1166435396851
 20
-438.5988611847277
 30
0.0
 40
12.0
  1
尺度：
100
AcDbText
  0
TEXT
  5
C9AB
330
1F
100
AcDbEntity
  8
WAKU
 62
     3
380
     1
100
AcDbText
 10
403.9468642155898
 20
-470.6575846115318
 30
0.0
 40
12.0
  1
検図：
100
AcDbText
  0
CIRCLE
  5
C9AC
330
1F
100
AcDbEntity
  8
_0-0_
100
AcDbCircle
 10
8.744507210328947
 20
458.6325452842893
 30
0.0
 40
8.000000000000065
  0
CIRCLE
  5
C9AD
330
1F
100
AcDbEntity
  8
_0-0_
100
AcDbCircle
 10
8.744507210328947
 20
458.6325452842893
 30
0.0
 40
8.999999999999946
  0
CIRCLE
  5
C9AE
330
1F
100
AcDbEntity
  8
_0-0_
100
AcDbCircle
 10
28.74450721032895
 20
458.6325452842893
 30
0.0
 40
8.999999999999946
  0
CIRCLE
  5
C9AF
330
1F
100
AcDbEntity
  8
_0-0_
100
AcDbCircle
 10
28.74450721032895
 20
458.6325452842893
 30
0.0
 40
8.000000000000065
  0
CIRCLE
  5
C9B0
330
1F
100
AcDbEntity
  8
_0-0_
100
AcDbCircle
 10
68.74450721032895
 20
458.6325452842893
 30
0.0
 40
8.000000000000065
  0
CIRCLE
  5
C9B1
330
1F
100
AcDbEntity
  8
_0-0_
100
AcDbCircle
 10
68.74450721032895
 20
458.6325452842893
 30
0.0
 40
8.999999999999946
  0
CIRCLE
  5
C9B2
330
1F
100
AcDbEntity
  8
_0-0_
100
AcDbCircle
 10
48.74450721032895
 20
458.6325452842893
 30
0.0
 40
8.999999999999946
  0
CIRCLE
  5
C9B3
330
1F
100
AcDbEntity
  8
_0-0_
100
AcDbCircle
 10
48.74450721032895
 20
458.6325452842893
 30
0.0
 40
8.000000000000065
  0
CIRCLE
  5
C9B4
330
1F
100
AcDbEntity
  8
_0-0_
100
AcDbCircle
 10
108.7445072103289
 20
458.6325452842893
 30
0.0
 40
8.000000000000065
  0
CIRCLE
  5
C9B5
330
1F
100
AcDbEntity
  8
_0-0_
100
AcDbCircle
 10
108.7445072103289
 20
458.6325452842893
 30
0.0
 40
8.999999999999946
  0
CIRCLE
  5
C9B6
330
1F
100
AcDbEntity
  8
_0-0_
100
AcDbCircle
 10
88.74450721032895
 20
458.6325452842893
 30
0.0
 40
8.999999999999946
  0
CIRCLE
  5
C9B7
330
1F
100
AcDbEntity
  8
_0-0_
100
AcDbCircle
 10
88.74450721032895
 20
458.6325452842893
 30
0.0
 40
8.000000000000065
  0
TEXT
  5
C9B8
330
1F
100
AcDbEntity
  8
TEXT
 62
     3
380
     1
100
AcDbText
 10
-1038.921707655426
 20
-210.0378337807135
 30
0.0
 40
10.8
  1
1DR：320/320g（スライス時間MAX時）
100
AcDbText
  0
LINE
  5
C9B9
330
1F
100
AcDbEntity
  8
TEXT
 62
     3
380
     1
100
AcDbLine
 10
-1150.978648968492
 20
-273.9922283190126
 30
0.0
 11
-750.9786489684925
 21
-273.9922283190126
 31
0.0
  0
TEXT
  5
C9BA
330
1F
100
AcDbEntity
  8
TEXT
 62
     3
380
     1
100
AcDbText
 10
-1038.921707655426
 20
-249.7096228984113
 30
0.0
 40
10.8
  1
2DR：570/610g（スライス時間MAX時）
100
AcDbText
  0
TEXT
  5
C9BB
330
1F
100
AcDbEntity
  8
TEXT
 62
     3
380
     1
100
AcDbText
 10
-994.5906991254584
 20
-230.0378337807135
 30
0.0
 40
10.8
  1
1分間：1.6/1.6kg
100
AcDbText
  0
TEXT
  5
C9BC
330
1F
100
AcDbEntity
  8
TEXT
 62
     3
380
     1
100
AcDbText
 10
-994.5906991254584
 20
-269.7096228984114
 30
0.0
 40
10.8
  1
1分間：1.4/1.5kg
100
AcDbText
  0
TEXT
  5
C9BD
330
1F
100
AcDbEntity
  8
TEXT
 62
     3
380
     1
100
AcDbText
 10
-1149.492825916847
 20
-228.871488359792
 30
0.0
 40
12.0
  1
（50/60Hz）
100
AcDbText
  0
TEXT
  5
C9BE
330
1F
100
AcDbEntity
  8
TEXT
 62
     3
380
     1
100
AcDbText
 10
-1040.118632299335
 20
-151.4936967601559
 30
0.0
 40
12.0
  1
4.3/4.9A
100
AcDbText
  0
ENDSEC
  0
SECTION
  2
OBJECTS
  0
DICTIONARY
  5
C
330
0
100
AcDbDictionary
281
     1
  3
ACAD_COLOR
350
5427
  3
ACAD_GROUP
350
D
  3
ACAD_LAYOUT
350
1A
  3
ACAD_MATERIAL
350
5423
  3
ACAD_MLEADERSTYLE
350
542A
  3
ACAD_MLINESTYLE
350
17
  3
ACAD_PLOTSETTINGS
350
19
  3
ACAD_PLOTSTYLENAME
350
E
  3
ACAD_SCALELIST
350
47
  3
ACAD_TABLESTYLE
350
5428
  3
ACDBHEADERROUNDTRIPXREC
350
C9DD
  3
AcDbVariableDictionary
350
6E96
  3
DWGPROPS
350
C9DC
  0
DICTIONARY
  5
C0A9
330
2
100
AcDbDictionary
280
     1
281
     1
  3
ACAD_LAYERSTATES
360
C0AA
  0
DICTIONARY
  5
7022
330
1F
100
AcDbDictionary
280
     1
281
     1
  3
ACAD_SORTENTS
360
7023
  0
DICTIONARY
  5
5427
102
{ACAD_REACTORS
330
C
102
}
330
C
100
AcDbDictionary
281
     1
  0
DICTIONARY
  5
D
102
{ACAD_REACTORS
330
C
102
}
330
C
100
AcDbDictionary
281
     1
  0
DICTIONARY
  5
1A
102
{ACAD_REACTORS
330
C
102
}
330
C
100
AcDbDictionary
281
     1
  3
Layout1
350
1E
  3
Layout2
350
26
  3
Model
350
22
  0
DICTIONARY
  5
5423
102
{ACAD_REACTORS
330
C
102
}
330
C
100
AcDbDictionary
281
     1
  3
ByBlock
350
5425
  3
ByLayer
350
5424
  3
Global
350
5426
  0
DICTIONARY
  5
542A
102
{ACAD_REACTORS
330
C
102
}
330
C
100
AcDbDictionary
281
     1
  3
Standard
350
542B
  0
DICTIONARY
  5
17
102
{ACAD_REACTORS
330
C
102
}
330
C
100
AcDbDictionary
281
     1
  3
Standard
350
18
  0
DICTIONARY
  5
19
102
{ACAD_REACTORS
330
C
102
}
330
C
100
AcDbDictionary
281
     1
  0
ACDBDICTIONARYWDFLT
  5
E
102
{ACAD_REACTORS
330
C
102
}
330
C
100
AcDbDictionary
281
     1
  3
Normal
350
F
100
AcDbDictionaryWithDefault
340
F
  0
DICTIONARY
  5
47
102
{ACAD_REACTORS
330
C
102
}
330
C
100
AcDbDictionary
281
     1
  3
A0
350
48
  3
A1
350
49
  3
A2
350
4A
  3
A3
350
4B
  3
A4
350
4C
  3
A5
350
4D
  3
A6
350
4E
  3
A7
350
4F
  3
A8
350
50
  3
A9
350
51
  3
B0
350
52
  3
B1
350
53
  3
B2
350
54
  3
B3
350
55
  3
B4
350
56
  3
B5
350
57
  3
B6
350
58
  0
DICTIONARY
  5
5428
102
{ACAD_REACTORS
330
C
102
}
330
C
100
AcDbDictionary
281
     1
  3
Standard
350
5429
  0
DICTIONARY
  5
C9DD
102
{ACAD_REACTORS
330
C
102
}
330
C
100
AcDbDictionary
281
     1
  0
DICTIONARY
  5
6E96
102
{ACAD_REACTORS
330
C
102
}
330
C
100
AcDbDictionary
281
     1
  3
CMLEADERSTYLE
350
6E98
  3
CTABLESTYLE
350
6E97
  3
DIMASSOC
350
C9DA
  3
PROJECTNAME
350
C9DB
  0
XRECORD
  5
C9DC
102
{ACAD_REACTORS
330
C
102
}
330
C
100
AcDbXrecord
280
     1
  1
DWGPROPS COOKIE
  2

  3

  4

  6

  7

  8
1547nh
  9

300
=
301
=
302
=
303
=
304
=
305
=
306
=
307
=
308
=
309
=
 40
0.0113729282407408
 41
2460588.489137372
 42
2460734.644581297
  1

 90
        0
  0
DICTIONARY
  5
C0AA
102
{ACAD_REACTORS
330
C0A9
102
}
330
C0A9
100
AcDbDictionary
281
     1
  0
SORTENTSTABLE
  5
7023
102
{ACAD_REACTORS
330
7022
102
}
330
7022
100
AcDbSortentsTable
330
1F
331
3A4F
  5
3A4F
  0
LAYOUT
  5
1E
102
{ACAD_XDICTIONARY
360
C9DE
102
}
102
{ACAD_REACTORS
330
1A
102
}
330
1A
100
AcDbPlotSettings
  1

  2
none_device
  4

  6

 40
0.0
 41
0.0
 42
0.0
 43
0.0
 44
0.0
 45
0.0
 46
0.0
 47
0.0
 48
0.0
 49
0.0
140
0.0
141
0.0
142
1.0
143
1.0
 70
   688
 72
     1
 73
     0
 74
     5
  7
yama1.ctb
 75
    16
147
1.0
148
0.0
149
0.0
100
AcDbLayout
  1
Layout1
 70
     1
 71
     1
 10
0.0
 20
0.0
 11
420.0
 21
297.0
 12
0.0
 22
0.0
 32
0.0
 14
1.000000000000000E+20
 24
1.000000000000000E+20
 34
1.000000000000000E+20
 15
-1.000000000000000E+20
 25
-1.000000000000000E+20
 35
-1.000000000000000E+20
146
0.0
 13
0.0
 23
0.0
 33
0.0
 16
1.0
 26
0.0
 36
0.0
 17
0.0
 27
1.0
 37
0.0
 76
     0
330
1B
  0
LAYOUT
  5
26
102
{ACAD_XDICTIONARY
360
C9E2
102
}
102
{ACAD_REACTORS
330
1A
102
}
330
1A
100
AcDbPlotSettings
  1

  2
none_device
  4

  6

 40
0.0
 41
0.0
 42
0.0
 43
0.0
 44
0.0
 45
0.0
 46
0.0
 47
0.0
 48
0.0
 49
0.0
140
0.0
141
0.0
142
1.0
143
1.0
 70
   688
 72
     1
 73
     0
 74
     5
  7
yama1.ctb
 75
    16
147
1.0
148
0.0
149
0.0
100
AcDbLayout
  1
Layout2
 70
     1
 71
     2
 10
0.0
 20
0.0
 11
0.0
 21
0.0
 12
0.0
 22
0.0
 32
0.0
 14
0.0
 24
0.0
 34
0.0
 15
0.0
 25
0.0
 35
0.0
146
0.0
 13
0.0
 23
0.0
 33
0.0
 16
1.0
 26
0.0
 36
0.0
 17
0.0
 27
1.0
 37
0.0
 76
     0
330
23
  0
LAYOUT
  5
22
102
{ACAD_XDICTIONARY
360
C9E0
102
}
102
{ACAD_REACTORS
330
1A
102
}
330
1A
100
AcDbPlotSettings
  1

  2
none_device
  4
Letter_(8.50_x_11.00_Inches)
  6

 40
6.349999999999999
 41
6.349999999999999
 42
6.350005079999999
 43
6.350005079999999
 44
215.9
 45
279.4
 46
0.0
 47
0.0
 48
0.0
 49
0.0
140
0.0
141
0.0
142
1.0
143
1.0
 70
  1712
 72
     1
 73
     0
 74
     0
  7
yama1.ctb
 75
     0
147
1.0
148
0.0
149
0.0
100
AcDbLayout
  1
Model
 70
     1
 71
     0
 10
0.0
 20
0.0
 11
594.0
 21
420.0
 12
0.0
 22
0.0
 32
0.0
 14
0.0
 24
0.0
 34
0.0
 15
594.0
 25
420.0
 35
0.0
146
0.0
 13
0.0
 23
0.0
 33
0.0
 16
1.0
 26
0.0
 36
0.0
 17
0.0
 27
1.0
 37
0.0
 76
     0
330
1F
  0
MATERIAL
  5
5425
102
{ACAD_REACTORS
330
5423
102
}
330
5423
100
AcDbMaterial
  1
ByBlock
  2

  0
MATERIAL
  5
5424
102
{ACAD_REACTORS
330
5423
102
}
330
5423
100
AcDbMaterial
  1
ByLayer
  2

  0
MATERIAL
  5
5426
102
{ACAD_REACTORS
330
5423
102
}
330
5423
100
AcDbMaterial
  1
Global
  2

  0
MLEADERSTYLE
  5
542B
102
{ACAD_REACTORS
330
542A
102
}
330
542A
100
AcDbMLeaderStyle
170
     2
171
     1
172
     0
 90
        2
 40
0.0
 41
0.0
173
     1
 91
-1056964608
340
14
 92
       -2
290
     1
 42
0.09
291
     1
 43
0.36
  3
Standard
341
0
 44
0.18
300

342
11
174
     1
178
     1
175
     1
176
     0
 93
-1056964608
 45
0.18
292
     0
297
     0
 46
0.18
343
0
 94
-1056964608
 47
1.0
 49
1.0
140
1.0
293
     1
141
0.0
294
     1
177
     0
142
1.0
295
     0
296
     0
143
0.125
1001
ACAD_MLEADERVER
1070
     2
  0
MLINESTYLE
  5
18
102
{ACAD_REACTORS
330
17
102
}
330
17
100
AcDbMlineStyle
  2
STANDARD
 70
     0
  3

 62
   256
 51
90.0
 52
90.0
 71
     2
 49
0.5
 62
   256
  6
BYLAYER
 49
-0.5
 62
   256
  6
BYLAYER
  0
ACDBPLACEHOLDER
  5
F
102
{ACAD_REACTORS
330
E
102
}
330
E
  0
SCALE
  5
48
102
{ACAD_REACTORS
330
47
102
}
330
47
100
AcDbScale
 70
     0
300
1:1
140
1.0
141
1.0
290
     1
  0
SCALE
  5
49
102
{ACAD_REACTORS
330
47
102
}
330
47
100
AcDbScale
 70
     0
300
1:2
140
1.0
141
2.0
290
     0
  0
SCALE
  5
4A
102
{ACAD_REACTORS
330
47
102
}
330
47
100
AcDbScale
 70
     0
300
1:4
140
1.0
141
4.0
290
     0
  0
SCALE
  5
4B
102
{ACAD_REACTORS
330
47
102
}
330
47
100
AcDbScale
 70
     0
300
1:5
140
1.0
141
5.0
290
     0
  0
SCALE
  5
4C
102
{ACAD_REACTORS
330
47
102
}
330
47
100
AcDbScale
 70
     0
300
1:8
140
1.0
141
8.0
290
     0
  0
SCALE
  5
4D
102
{ACAD_REACTORS
330
47
102
}
330
47
100
AcDbScale
 70
     0
300
1:10
140
1.0
141
10.0
290
     0
  0
SCALE
  5
4E
102
{ACAD_REACTORS
330
47
102
}
330
47
100
AcDbScale
 70
     0
300
1:16
140
1.0
141
16.0
290
     0
  0
SCALE
  5
4F
102
{ACAD_REACTORS
330
47
102
}
330
47
100
AcDbScale
 70
     0
300
1:20
140
1.0
141
20.0
290
     0
  0
SCALE
  5
50
102
{ACAD_REACTORS
330
47
102
}
330
47
100
AcDbScale
 70
     0
300
1:30
140
1.0
141
30.0
290
     0
  0
SCALE
  5
51
102
{ACAD_REACTORS
330
47
102
}
330
47
100
AcDbScale
 70
     0
300
1:40
140
1.0
141
40.0
290
     0
  0
SCALE
  5
52
102
{ACAD_REACTORS
330
47
102
}
330
47
100
AcDbScale
 70
     0
300
1:50
140
1.0
141
50.0
290
     0
  0
SCALE
  5
53
102
{ACAD_REACTORS
330
47
102
}
330
47
100
AcDbScale
 70
     0
300
1:100
140
1.0
141
100.0
290
     0
  0
SCALE
  5
54
102
{ACAD_REACTORS
330
47
102
}
330
47
100
AcDbScale
 70
     0
300
2:1
140
2.0
141
1.0
290
     0
  0
SCALE
  5
55
102
{ACAD_REACTORS
330
47
102
}
330
47
100
AcDbScale
 70
     0
300
4:1
140
4.0
141
1.0
290
     0
  0
SCALE
  5
56
102
{ACAD_REACTORS
330
47
102
}
330
47
100
AcDbScale
 70
     0
300
8:1
140
8.0
141
1.0
290
     0
  0
SCALE
  5
57
102
{ACAD_REACTORS
330
47
102
}
330
47
100
AcDbScale
 70
     0
300
10:1
140
10.0
141
1.0
290
     0
  0
SCALE
  5
58
102
{ACAD_REACTORS
330
47
102
}
330
47
100
AcDbScale
 70
     0
300
100:1
140
100.0
141
1.0
290
     0
  0
TABLESTYLE
  5
5429
102
{ACAD_REACTORS
330
5428
102
}
330
5428
100
AcDbTableStyle
  3
Standard
 70
     0
 71
     0
 40
0.06
 41
0.06
280
     0
281
     0
  7
Standard
140
4.5
170
     2
 62
     0
 63
   257
283
     0
274
    -2
284
     1
 64
     0
275
    -2
285
     1
 65
     0
276
    -2
286
     1
 66
     0
277
    -2
287
     1
 67
     0
278
    -2
288
     1
 68
     0
279
    -2
289
     1
 69
     0
  7
Standard
140
6.0
170
     5
 62
     0
 63
   257
283
     0
274
    -2
284
     1
 64
     0
275
    -2
285
     1
 65
     0
276
    -2
286
     1
 66
     0
277
    -2
287
     1
 67
     0
278
    -2
288
     1
 68
     0
279
    -2
289
     1
 69
     0
  7
Standard
140
4.5
170
     5
 62
     0
 63
   257
283
     0
274
    -2
284
     1
 64
     0
275
    -2
285
     1
 65
     0
276
    -2
286
     1
 66
     0
277
    -2
287
     1
 67
     0
278
    -2
288
     1
 68
     0
279
    -2
289
     1
 69
     0
  0
DICTIONARYVAR
  5
6E98
102
{ACAD_REACTORS
330
6E96
102
}
330
6E96
100
DictionaryVariables
280
     0
  1
STANDARD
  0
DICTIONARYVAR
  5
6E97
102
{ACAD_REACTORS
330
6E96
102
}
330
6E96
100
DictionaryVariables
280
     0
  1
STANDARD
  0
DICTIONARYVAR
  5
C9DA
102
{ACAD_REACTORS
330
6E96
102
}
330
6E96
100
DictionaryVariables
280
     0
  1
1
  0
DICTIONARYVAR
  5
C9DB
102
{ACAD_REACTORS
330
6E96
102
}
330
6E96
100
DictionaryVariables
280
     0
  1

  0
DICTIONARY
  5
C9DE
330
1E
100
AcDbDictionary
280
     1
281
     1
  3
ACAD_XREC_ROUNDTRIP
360
C9DF
  0
DICTIONARY
  5
C9E2
330
26
100
AcDbDictionary
280
     1
281
     1
  3
ACAD_XREC_ROUNDTRIP
360
C9E3
  0
DICTIONARY
  5
C9E0
330
22
100
AcDbDictionary
280
     1
281
     1
  3
ACAD_XREC_ROUNDTRIP
360
C9E1
  0
XRECORD
  5
C9DF
102
{ACAD_REACTORS
330
C9DE
102
}
330
C9DE
100
AcDbXrecord
280
     1
102
SHADEPLOT
 70
     0
102
SHADEPLOTRESLEVEL
 70
     2
102
SHADEPLOTCUSTOMDPI
 70
   300
  0
XRECORD
  5
C9E3
102
{ACAD_REACTORS
330
C9E2
102
}
330
C9E2
100
AcDbXrecord
280
     1
102
SHADEPLOT
 70
     0
102
SHADEPLOTRESLEVEL
 70
     2
102
SHADEPLOTCUSTOMDPI
 70
   300
  0
XRECORD
  5
C9E1
102
{ACAD_REACTORS
330
C9E0
102
}
330
C9E0
100
AcDbXrecord
280
     1
102
SHADEPLOT
 70
     0
102
SHADEPLOTRESLEVEL
 70
     2
102
SHADEPLOTCUSTOMDPI
 70
   300
  0
ENDSEC
  0
EOF
