  0
SECTION
  2
HEADER
  9
$ACADVER
  1
AC1015
  9
$ACADMAINTVER
 70
    20
  9
$DWGCODEPAGE
  3
ANSI_932
  9
$INSBASE
 10
0.0
 20
0.0
 30
0.0
  9
$EXTMIN
 10
368.0
 20
268.0
 30
0.0
  9
$EXTMAX
 10
2011.718505187165
 20
1412.0
 30
0.0
  9
$LIMMIN
 10
0.0
 20
0.0
  9
$LIMMAX
 10
2376.0
 20
1680.0
  9
$ORTHOMODE
 70
     0
  9
$REGENMODE
 70
     1
  9
$FILLMODE
 70
     1
  9
$QTEXTMODE
 70
     0
  9
$MIRRTEXT
 70
     1
  9
$LTSCALE
 40
4.0
  9
$ATTMODE
 70
     1
  9
$TEXTSIZE
 40
0.2
  9
$TRACEWID
 40
0.05
  9
$TEXTSTYLE
  7
STANDARD
  9
$CLAYER
  8
0
  9
$CELTYPE
  6
CONTINUOUS
  9
$CECOLOR
 62
   256
  9
$CELTSCALE
 40
1.0
  9
$DISPSILH
 70
     0
  9
$DIMSCALE
 40
1.0
  9
$DIMASZ
 40
0.18
  9
$DIMEXO
 40
0.0625
  9
$DIMDLI
 40
0.38
  9
$DIMRND
 40
0.0
  9
$DIMDLE
 40
0.0
  9
$DIMEXE
 40
0.18
  9
$DIMTP
 40
0.0
  9
$DIMTM
 40
0.0
  9
$DIMTXT
 40
0.18
  9
$DIMCEN
 40
0.09
  9
$DIMTSZ
 40
0.0
  9
$DIMTOL
 70
     0
  9
$DIMLIM
 70
     0
  9
$DIMTIH
 70
     1
  9
$DIMTOH
 70
     1
  9
$DIMSE1
 70
     0
  9
$DIMSE2
 70
     0
  9
$DIMTAD
 70
     0
  9
$DIMZIN
 70
     0
  9
$DIMBLK
  1

  9
$DIMASO
 70
     1
  9
$DIMSHO
 70
     1
  9
$DIMPOST
  1

  9
$DIMAPOST
  1

  9
$DIMALT
 70
     0
  9
$DIMALTD
 70
     2
  9
$DIMALTF
 40
25.4
  9
$DIMLFAC
 40
1.0
  9
$DIMTOFL
 70
     0
  9
$DIMTVP
 40
0.0
  9
$DIMTIX
 70
     0
  9
$DIMSOXD
 70
     0
  9
$DIMSAH
 70
     0
  9
$DIMBLK1
  1

  9
$DIMBLK2
  1

  9
$DIMSTYLE
  2
Standard
  9
$DIMCLRD
 70
     0
  9
$DIMCLRE
 70
     0
  9
$DIMCLRT
 70
     0
  9
$DIMTFAC
 40
1.0
  9
$DIMGAP
 40
0.09
  9
$DIMJUST
 70
     0
  9
$DIMSD1
 70
     0
  9
$DIMSD2
 70
     0
  9
$DIMTOLJ
 70
     1
  9
$DIMTZIN
 70
     0
  9
$DIMALTZ
 70
     0
  9
$DIMALTTZ
 70
     0
  9
$DIMUPT
 70
     0
  9
$DIMDEC
 70
     4
  9
$DIMTDEC
 70
     4
  9
$DIMALTU
 70
     2
  9
$DIMALTTD
 70
     2
  9
$DIMTXSTY
  7
STANDARD
  9
$DIMAUNIT
 70
     0
  9
$DIMADEC
 70
     0
  9
$DIMALTRND
 40
0.0
  9
$DIMAZIN
 70
     0
  9
$DIMDSEP
 70
    46
  9
$DIMATFIT
 70
     3
  9
$DIMFRAC
 70
     0
  9
$DIMLDRBLK
  1

  9
$DIMLUNIT
 70
     2
  9
$DIMLWD
 70
    -2
  9
$DIMLWE
 70
    -2
  9
$DIMTMOVE
 70
     0
  9
$LUNITS
 70
     2
  9
$LUPREC
 70
     4
  9
$SKETCHINC
 40
0.1
  9
$FILLETRAD
 40
0.0
  9
$AUNITS
 70
     0
  9
$AUPREC
 70
     0
  9
$MENU
  1
.
  9
$ELEVATION
 40
0.0
  9
$PELEVATION
 40
0.0
  9
$THICKNESS
 40
0.0
  9
$LIMCHECK
 70
     0
  9
$CHAMFERA
 40
0.0
  9
$CHAMFERB
 40
0.0
  9
$CHAMFERC
 40
0.0
  9
$CHAMFERD
 40
0.0
  9
$SKPOLY
 70
     0
  9
$TDCREATE
 40
2456108.628848056
  9
$TDUCREATE
 40
2456108.253848055
  9
$TDUPDATE
 40
2456273.671471331
  9
$TDUUPDATE
 40
2456273.296471331
  9
$TDINDWG
 40
0.0027551968
  9
$TDUSRTIMER
 40
0.0027551968
  9
$USRTIMER
 70
     1
  9
$ANGBASE
 50
0.0
  9
$ANGDIR
 70
     0
  9
$PDMODE
 70
     0
  9
$PDSIZE
 40
0.0
  9
$PLINEWID
 40
0.0
  9
$SPLFRAME
 70
     0
  9
$SPLINETYPE
 70
     6
  9
$SPLINESEGS
 70
     8
  9
$HANDSEED
  5
5ED
  9
$SURFTAB1
 70
     6
  9
$SURFTAB2
 70
     6
  9
$SURFTYPE
 70
     6
  9
$SURFU
 70
     6
  9
$SURFV
 70
     6
  9
$UCSBASE
  2

  9
$UCSNAME
  2

  9
$UCSORG
 10
0.0
 20
0.0
 30
0.0
  9
$UCSXDIR
 10
1.0
 20
0.0
 30
0.0
  9
$UCSYDIR
 10
0.0
 20
1.0
 30
0.0
  9
$UCSORTHOREF
  2

  9
$UCSORTHOVIEW
 70
     0
  9
$UCSORGTOP
 10
0.0
 20
0.0
 30
0.0
  9
$UCSORGBOTTOM
 10
0.0
 20
0.0
 30
0.0
  9
$UCSORGLEFT
 10
0.0
 20
0.0
 30
0.0
  9
$UCSORGRIGHT
 10
0.0
 20
0.0
 30
0.0
  9
$UCSORGFRONT
 10
0.0
 20
0.0
 30
0.0
  9
$UCSORGBACK
 10
0.0
 20
0.0
 30
0.0
  9
$PUCSBASE
  2

  9
$PUCSNAME
  2

  9
$PUCSORG
 10
0.0
 20
0.0
 30
0.0
  9
$PUCSXDIR
 10
1.0
 20
0.0
 30
0.0
  9
$PUCSYDIR
 10
0.0
 20
1.0
 30
0.0
  9
$PUCSORTHOREF
  2

  9
$PUCSORTHOVIEW
 70
     0
  9
$PUCSORGTOP
 10
0.0
 20
0.0
 30
0.0
  9
$PUCSORGBOTTOM
 10
0.0
 20
0.0
 30
0.0
  9
$PUCSORGLEFT
 10
0.0
 20
0.0
 30
0.0
  9
$PUCSORGRIGHT
 10
0.0
 20
0.0
 30
0.0
  9
$PUCSORGFRONT
 10
0.0
 20
0.0
 30
0.0
  9
$PUCSORGBACK
 10
0.0
 20
0.0
 30
0.0
  9
$USERI1
 70
     0
  9
$USERI2
 70
     0
  9
$USERI3
 70
     0
  9
$USERI4
 70
     0
  9
$USERI5
 70
     0
  9
$USERR1
 40
0.0
  9
$USERR2
 40
0.0
  9
$USERR3
 40
0.0
  9
$USERR4
 40
0.0
  9
$USERR5
 40
0.0
  9
$WORLDVIEW
 70
     1
  9
$SHADEDGE
 70
     3
  9
$SHADEDIF
 70
    70
  9
$TILEMODE
 70
     1
  9
$MAXACTVP
 70
    64
  9
$PINSBASE
 10
0.0
 20
0.0
 30
0.0
  9
$PLIMCHECK
 70
     0
  9
$PEXTMIN
 10
1.000000000000000E+20
 20
1.000000000000000E+20
 30
1.000000000000000E+20
  9
$PEXTMAX
 10
-1.000000000000000E+20
 20
-1.000000000000000E+20
 30
-1.000000000000000E+20
  9
$PLIMMIN
 10
0.0
 20
0.0
  9
$PLIMMAX
 10
12.0
 20
9.0
  9
$UNITMODE
 70
     0
  9
$VISRETAIN
 70
     1
  9
$PLINEGEN
 70
     0
  9
$PSLTSCALE
 70
     1
  9
$TREEDEPTH
 70
  3020
  9
$CMLSTYLE
  2
Standard
  9
$CMLJUST
 70
     0
  9
$CMLSCALE
 40
1.0
  9
$PROXYGRAPHICS
 70
     1
  9
$MEASUREMENT
 70
     0
  9
$CELWEIGHT
370
    -1
  9
$ENDCAPS
280
     0
  9
$JOINSTYLE
280
     0
  9
$LWDISPLAY
290
     0
  9
$INSUNITS
 70
     0
  9
$HYPERLINKBASE
  1

  9
$STYLESHEET
  1
acad.stb
  9
$XEDIT
290
     1
  9
$CEPSNTYPE
380
     0
  9
$PSTYLEMODE
290
     0
  9
$FINGERPRINTGUID
  2
{D1962F3C-5F00-4DD4-8197-2FC2A689FD40}
  9
$VERSIONGUID
  2
{BFB6762C-83C6-4E63-A667-48B3CEFCA483}
  9
$EXTNAMES
290
     1
  9
$PSVPSCALE
 40
0.0
  9
$OLESTARTUP
290
     0
  0
ENDSEC
  0
SECTION
  2
CLASSES
  0
CLASS
  1
ACDBDICTIONARYWDFLT
  2
AcDbDictionaryWithDefault
  3
ObjectDBX Classes
 90
        0
280
     0
281
     0
  0
CLASS
  1
ACDBPLACEHOLDER
  2
AcDbPlaceHolder
  3
ObjectDBX Classes
 90
        0
280
     0
281
     0
  0
CLASS
  1
LAYOUT
  2
AcDbLayout
  3
ObjectDBX Classes
 90
        0
280
     0
281
     0
  0
CLASS
  1
AMGSETTINGSOBJ
  2
AmgSettingsObj
  3
"AcadM|Product Description: AutoCAD Mechanical 2000|Company: Autodesk"
 90
        0
280
     0
281
     0
  0
CLASS
  1
ACME_DOCUMENT
  2
AcMeDbDoc
  3
AcMeServices
 90
    32768
280
     0
281
     0
  0
CLASS
  1
ACMESCOPE
  2
AcMeScope
  3
AcMeServices
 90
        0
280
     0
281
     0
  0
CLASS
  1
ACMECOMMANDHISTORY
  2
AcMeCommandHistory
  3
AcMeServices
 90
        0
280
     0
281
     0
  0
CLASS
  1
ACIMSYSVARMAN
  2
AcImSysVarManager
  3
AcMeServices
 90
        0
280
     0
281
     0
  0
CLASS
  1
ACIMREALSYSVAR
  2
AcImRealSysVar
  3
AcMeServices
 90
        0
280
     0
281
     0
  0
CLASS
  1
ACIMINTSYSVAR
  2
AcImIntSysVar
  3
AcMeServices
 90
        0
280
     0
281
     0
  0
CLASS
  1
ACMEDRAWINGMAN
  2
AcMeDrawingMan
  3
AcMeServices
 90
        0
280
     0
281
     0
  0
CLASS
  1
ACMEVIEW
  2
AcMeView
  3
AcMeServices
 90
        0
280
     0
281
     0
  0
CLASS
  1
ACDBENTITYCACHE
  2
AcMeEntityCache
  3
AcMeServices
 90
    32768
280
     0
281
     0
  0
CLASS
  1
GSMANAGER
  2
AcMeGSManager
  3
AcMeServices
 90
    32768
280
     0
281
     0
  0
CLASS
  1
AMDTINTERNALREACTOR
  2
AmdtInternalReactor
  3
AcMeServices
 90
    32768
280
     0
281
     0
  0
CLASS
  1
ACMESTATEMGR
  2
AcMeStateMgr
  3
AcMeServices
 90
        0
280
     0
281
     0
  0
CLASS
  1
ACGREFMASTER
  2
AcGrefMaster
  3
AcAttribServices
 90
        0
280
     0
281
     0
  0
CLASS
  1
ACME_DATABASE
  2
AcMeDbDatabase
  3
AcMeServices
 90
    32768
280
     0
281
     0
  0
CLASS
  1
ACRFINSADJUSTERMGR
  2
AcRfInsAdjusterMgr
  3
AcMeServices
 90
    32768
280
     0
281
     0
  0
CLASS
  1
ACGREFACADMASTER
  2
AcGrefacadMaster
  3
AcGrefServices
 90
        0
280
     0
281
     0
  0
CLASS
  1
AMIMASTER
  2
AmiMaster
  3
AmiServices
 90
        0
280
     0
281
     0
  0
CLASS
  1
ACMDATADICTIONARY
  2
AcmDataDictionary
  3
"AcmSymBB|Product Description: AutoCAD Mechanical 2000|Company: Autodesk"
 90
        0
280
     0
281
     0
  0
CLASS
  1
ACMDATAENTRYBLOCK
  2
AcmDataEntryBlock
  3
"AcmSymBB|Product Description: AutoCAD Mechanical 2000|Company: Autodesk"
 90
        0
280
     0
281
     0
  0
CLASS
  1
ACIMSTRSYSVAR
  2
AcImStrSysVar
  3
AcMeServices
 90
        0
280
     0
281
     0
  0
CLASS
  1
ACMSTANDARDANSI
  2
AcmStandardANSI
  3
"Amdt_StdImp|Product Description: AutoCAD Mechanical 2000|Company: Autodesk"
 90
        0
280
     0
281
     0
  0
CLASS
  1
AMGOBJPROPCFG
  2
AmgObjPropCfg
  3
"AmgLay|Product Description: AutoCAD Mechanical 2000|Company: Autodesk"
 90
        1
280
     0
281
     0
  0
CLASS
  1
ACMSURFSTANDARDANSI
  2
AcmSurfTextStdANSI
  3
"Amdt_StdImp|Product Description: AutoCAD Mechanical 2000|Company: Autodesk"
 90
        0
280
     0
281
     0
  0
CLASS
  1
ACMFCFSTANDARDANSI
  2
AcmFCFStdANSI
  3
"Amdt_StdImp|Product Description: AutoCAD Mechanical 2000|Company: Autodesk"
 90
        0
280
     0
281
     0
  0
CLASS
  1
ACMWELDSTANDARDANSI
  2
AcmWeldingStdANSI
  3
"Amdt_StdImp|Product Description: AutoCAD Mechanical 2000|Company: Autodesk"
 90
        0
280
     0
281
     0
  0
CLASS
  1
ACMIDSTANDARDANSI
  2
AcmIdStdANSI
  3
"Amdt_StdImp|Product Description: AutoCAD Mechanical 2000|Company: Autodesk"
 90
        0
280
     0
281
     0
  0
CLASS
  1
ACMDATUMSTANDARDANSI
  2
AcmDatumStdANSI
  3
"Amdt_StdImp|Product Description: AutoCAD Mechanical 2000|Company: Autodesk"
 90
        0
280
     0
281
     0
  0
CLASS
  1
ACMBOMSTANDARDANSI
  2
AcmBOMStdANSI
  3
"Amdt_StdImp|Product Description: AutoCAD Mechanical 2000|Company: Autodesk"
 90
        0
280
     0
281
     0
  0
CLASS
  1
ACMDETAILSTANDARDANSI
  2
AmdtDetailSymStdANSI
  3
"Amdt_StdImp|Product Description: AutoCAD Mechanical 2000|Company: Autodesk"
 90
        0
280
     0
281
     0
  0
CLASS
  1
ACMSECTIONSTANDARDANSI
  2
AmdtSectionSymStdANSI
  3
"Amdt_StdImp|Product Description: AutoCAD Mechanical 2000|Company: Autodesk"
 90
        0
280
     0
281
     0
  0
CLASS
  1
ACMCENTERLINESTANDARDANSI
  2
AmdtCenterLineStdANSI
  3
"Amdt_StdImp|Product Description: AutoCAD Mechanical 2000|Company: Autodesk"
 90
        0
280
     0
281
     0
  0
CLASS
  1
ACMNOTESTANDARDANSI
  2
AmdtNoteStdANSI
  3
"Amdt_StdImp|Product Description: AutoCAD Mechanical 2000|Company: Autodesk"
 90
        0
280
     0
281
     0
  0
CLASS
  1
ACAMGLAYSTD
  2
AcAmgLayStd
  3
"AcAmgLayStd|Product Description: AutoCAD Mechanical 2000|Company: Autodesk"
 90
        0
280
     0
281
     0
  0
CLASS
  1
ACAMGDIMSTD
  2
AcAmgDimStd
  3
"AcAmgDimStd|Product Description: AutoCAD Mechanical 2000|Company: Autodesk"
 90
        0
280
     0
281
     0
  0
CLASS
  1
ACAMGHOLECHARTSTDANSI
  2
AcAmgHoleChartStdANSI
  3
ACMSYMBB_MODULE_NAME
 90
        0
280
     0
281
     0
  0
CLASS
  1
ACAMGTITLESTD
  2
AcAmgTitleStd
  3
"TITLEAPP"
 90
        0
280
     0
281
     0
  0
CLASS
  1
ACAMGFILTERDAT
  2
AcAmgFilterDat
  3
"AcadM|Product Description: AutoCAD Mechanical 2000|Company: Autodesk"
 90
        0
280
     0
281
     0
  0
CLASS
  1
LAYER_INDEX
  2
AcDbLayerIndex
  3
ObjectDBX Classes
 90
        0
280
     0
281
     0
  0
CLASS
  1
IDBUFFER
  2
AcDbIdBuffer
  3
ObjectDBX Classes
 90
        0
280
     0
281
     0
  0
CLASS
  1
DICTIONARYVAR
  2
AcDbDictionaryVar
  3
ObjectDBX Classes
 90
        0
280
     0
281
     0
  0
ENDSEC
  0
SECTION
  2
TABLES
  0
TABLE
  2
VPORT
  5
8
330
0
100
AcDbSymbolTable
 70
     2
  0
VPORT
  5
5E4
330
8
100
AcDbSymbolTableRecord
100
AcDbViewportTableRecord
  2
*Active
 70
     0
 10
0.0
 20
0.0
 11
1.0
 21
1.0
 12
1487.23829808234
 22
781.1192303906373
 13
0.0
 23
0.0
 14
1.0
 24
1.0
 15
0.0
 25
0.0
 16
0.0
 26
0.0
 36
1.0
 17
0.0
 27
0.0
 37
0.0
 40
1777.425482289334
 41
1.792341678939617
 42
50.0
 43
0.0
 44
0.0
 50
0.0
 51
0.0
 71
     0
 72
   100
 73
     1
 74
     1
 75
     0
 76
     0
 77
     0
 78
     0
281
     0
 65
     1
110
0.0
120
0.0
130
0.0
111
1.0
121
0.0
131
0.0
112
0.0
122
1.0
132
0.0
 79
     0
146
0.0
  0
ENDTAB
  0
TABLE
  2
LTYPE
  5
5
330
0
100
AcDbSymbolTable
 70
    48
  0
LTYPE
  5
13
330
5
100
AcDbSymbolTableRecord
100
AcDbLinetypeTableRecord
  2
ByBlock
 70
     0
  3

 72
    65
 73
     0
 40
0.0
  0
LTYPE
  5
14
330
5
100
AcDbSymbolTableRecord
100
AcDbLinetypeTableRecord
  2
ByLayer
 70
     0
  3

 72
    65
 73
     0
 40
0.0
  0
LTYPE
  5
15
330
5
100
AcDbSymbolTableRecord
100
AcDbLinetypeTableRecord
  2
CONTINUOUS
 70
     0
  3
実線
 72
    65
 73
     0
 40
0.0
  0
LTYPE
  5
22
330
5
100
AcDbSymbolTableRecord
100
AcDbLinetypeTableRecord
  2
DASHED1
 70
     0
  3
--  --  --  --  --  --  --  --  
 72
    65
 73
     2
 40
2.5
 49
1.25
 74
     0
 49
-1.25
 74
     0
  0
LTYPE
  5
23
330
5
100
AcDbSymbolTableRecord
100
AcDbLinetypeTableRecord
  2
DASHED2
 70
     0
  3
----    ----    ----    ----    
 72
    65
 73
     2
 40
5.0
 49
2.5
 74
     0
 49
-2.5
 74
     0
  0
LTYPE
  5
24
330
5
100
AcDbSymbolTableRecord
100
AcDbLinetypeTableRecord
  2
DASHED3
 70
     0
  3
------  ------  ------  ------  
 72
    65
 73
     2
 40
5.0
 49
3.75
 74
     0
 49
-1.25
 74
     0
  0
LTYPE
  5
25
330
5
100
AcDbSymbolTableRecord
100
AcDbLinetypeTableRecord
  2
CENTER1
 70
     0
  3
----- - ----- - ----- - ----- - 
 72
    65
 73
     4
 40
10.0
 49
6.25
 74
     0
 49
-1.25
 74
     0
 49
1.25
 74
     0
 49
-1.25
 74
     0
  0
LTYPE
  5
26
330
5
100
AcDbSymbolTableRecord
100
AcDbLinetypeTableRecord
  2
CENTER2
 70
     0
  3
----------  --  ----------  --  
 72
    65
 73
     4
 40
20.0
 49
12.5
 74
     0
 49
-2.5
 74
     0
 49
2.5
 74
     0
 49
-2.5
 74
     0
  0
LTYPE
  5
27
330
5
100
AcDbSymbolTableRecord
100
AcDbLinetypeTableRecord
  2
PHANTOM1
 70
     0
  3
--- - - --- - - --- - - --- - - 
 72
    65
 73
     6
 40
10.0
 49
3.25
 74
     0
 49
-1.25
 74
     0
 49
1.25
 74
     0
 49
-1.25
 74
     0
 49
1.25
 74
     0
 49
-1.25
 74
     0
  0
LTYPE
  5
28
330
5
100
AcDbSymbolTableRecord
100
AcDbLinetypeTableRecord
  2
PHANTOM2
 70
     0
  3
--------  -  -  --------  -  -  
 72
    65
 73
     6
 40
20.0
 49
10.0
 74
     0
 49
-2.5
 74
     0
 49
1.25
 74
     0
 49
-2.5
 74
     0
 49
1.25
 74
     0
 49
-2.5
 74
     0
  0
LTYPE
  5
29
330
5
100
AcDbSymbolTableRecord
100
AcDbLinetypeTableRecord
  2
DOT
 70
     0
  3
-   -   -   -   -   -   -   -   
 72
    65
 73
     2
 40
2.5
 49
0.625
 74
     0
 49
-1.875
 74
     0
  0
LTYPE
  5
2A
330
5
100
AcDbSymbolTableRecord
100
AcDbLinetypeTableRecord
  2
DUMMY
 70
     0
  3
ダミー
 72
    65
 73
     0
 40
0.0
  0
LTYPE
  5
2B
330
5
100
AcDbSymbolTableRecord
100
AcDbLinetypeTableRecord
  2
RAND1
 70
     0
  3
ランダム線1
 72
    65
 73
     4
 40
10.0
 49
1.0
 74
     0
 49
-2.0
 74
     0
 49
3.0
 74
     0
 49
-4.0
 74
     0
  0
LTYPE
  5
2C
330
5
100
AcDbSymbolTableRecord
100
AcDbLinetypeTableRecord
  2
RAND2
 70
     0
  3
ランダム線2
 72
    65
 73
     4
 40
14.0
 49
2.0
 74
     0
 49
-3.0
 74
     0
 49
4.0
 74
     0
 49
-5.0
 74
     0
  0
LTYPE
  5
2D
330
5
100
AcDbSymbolTableRecord
100
AcDbLinetypeTableRecord
  2
RAND3
 70
     0
  3
ランダム線3
 72
    65
 73
     4
 40
18.0
 49
3.0
 74
     0
 49
-4.0
 74
     0
 49
5.0
 74
     0
 49
-6.0
 74
     0
  0
LTYPE
  5
2E
330
5
100
AcDbSymbolTableRecord
100
AcDbLinetypeTableRecord
  2
RAND4
 70
     0
  3
ランダム線4
 72
    65
 73
     4
 40
22.0
 49
4.0
 74
     0
 49
-5.0
 74
     0
 49
6.0
 74
     0
 49
-7.0
 74
     0
  0
LTYPE
  5
2F
330
5
100
AcDbSymbolTableRecord
100
AcDbLinetypeTableRecord
  2
RAND5
 70
     0
  3
ランダム線5
 72
    65
 73
     4
 40
26.0
 49
5.0
 74
     0
 49
-6.0
 74
     0
 49
7.0
 74
     0
 49
-8.0
 74
     0
  0
LTYPE
  5
30
330
5
100
AcDbSymbolTableRecord
100
AcDbLinetypeTableRecord
  2
LONG1
 70
     0
  3
----------  --  ----------  --  
 72
    65
 73
     4
 40
40.0
 49
32.5
 74
     0
 49
-2.5
 74
     0
 49
2.5
 74
     0
 49
-2.5
 74
     0
  0
LTYPE
  5
31
330
5
100
AcDbSymbolTableRecord
100
AcDbLinetypeTableRecord
  2
LONG2
 70
     0
  3
--------  -  -  --------  -  -  
 72
    65
 73
     6
 40
40.0
 49
30.0
 74
     0
 49
-2.5
 74
     0
 49
1.25
 74
     0
 49
-2.5
 74
     0
 49
1.25
 74
     0
 49
-2.5
 74
     0
  0
LTYPE
  5
32
330
5
100
AcDbSymbolTableRecord
100
AcDbLinetypeTableRecord
  2
LONG3
 70
     0
  3
+++++++++++++++..+++++++++++++++
 72
    65
 73
     2
 40
40.0
 49
37.5
 74
     0
 49
-2.5
 74
     0
  0
LTYPE
  5
33
330
5
100
AcDbSymbolTableRecord
100
AcDbLinetypeTableRecord
  2
LONG4
 70
     0
  3
+++++++++++++++..+++++++++++++++
 72
    65
 73
     2
 40
80.0
 49
75.0
 74
     0
 49
-5.0
 74
     0
  0
LTYPE
  5
34
330
5
100
AcDbSymbolTableRecord
100
AcDbLinetypeTableRecord
  2
LONG5
 70
     0
  3
----------  --  ----------  --  
 72
    65
 73
     4
 40
60.0
 49
37.5
 74
     0
 49
-7.5
 74
     0
 49
7.5
 74
     0
 49
-7.5
 74
     0
  0
LTYPE
  5
35
330
5
100
AcDbSymbolTableRecord
100
AcDbLinetypeTableRecord
  2
DASHED
 70
     0
  3
-------   -------------   ------
 72
    65
 73
     2
 40
7.5
 49
6.0
 74
     0
 49
-1.5
 74
     0
  0
LTYPE
  5
36
330
5
100
AcDbSymbolTableRecord
100
AcDbLinetypeTableRecord
  2
DASHED_SPACED
 70
     0
  3
----        --------        ----
 72
    65
 73
     2
 40
12.0
 49
6.0
 74
     0
 49
-6.0
 74
     0
  0
LTYPE
  5
37
330
5
100
AcDbSymbolTableRecord
100
AcDbLinetypeTableRecord
  2
LONG_DASHED_DOTTED
 70
     0
  3
------------- --- --------------
 72
    65
 73
     4
 40
15.25
 49
12.0
 74
     0
 49
-1.5
 74
     0
 49
0.25
 74
     0
 49
-1.5
 74
     0
  0
LTYPE
  5
38
330
5
100
AcDbSymbolTableRecord
100
AcDbLinetypeTableRecord
  2
LONG_DASHED_DOUBLE-DOTTED
 70
     0
  3
----------- --- --- ------------
 72
    65
 73
     6
 40
17.0
 49
12.0
 74
     0
 49
-1.5
 74
     0
 49
0.25
 74
     0
 49
-1.5
 74
     0
 49
0.25
 74
     0
 49
-1.5
 74
     0
  0
LTYPE
  5
39
330
5
100
AcDbSymbolTableRecord
100
AcDbLinetypeTableRecord
  2
LONG_DASHED_TRIPLICATE-DOTTED
 70
     0
  3
--------- --- --- --- ----------
 72
    65
 73
     8
 40
18.75
 49
12.0
 74
     0
 49
-1.5
 74
     0
 49
0.25
 74
     0
 49
-1.5
 74
     0
 49
0.25
 74
     0
 49
-1.5
 74
     0
 49
0.25
 74
     0
 49
-1.5
 74
     0
  0
LTYPE
  5
3A
330
5
100
AcDbSymbolTableRecord
100
AcDbLinetypeTableRecord
  2
DOTTED
 70
     0
  3
   -       -       -       -    
 72
    65
 73
     2
 40
1.75
 49
0.25
 74
     0
 49
-1.5
 74
     0
  0
LTYPE
  5
3B
330
5
100
AcDbSymbolTableRecord
100
AcDbLinetypeTableRecord
  2
CHAIN
 70
     0
  3
-------------- -- --------------
 72
    65
 73
     4
 40
18.5
 49
12.0
 74
     0
 49
-1.5
 74
     0
 49
3.5
 74
     0
 49
-1.5
 74
     0
  0
LTYPE
  5
3C
330
5
100
AcDbSymbolTableRecord
100
AcDbLinetypeTableRecord
  2
CHAIN_DOUBLE_DASH
 70
     0
  3
------------ -- -- -------------
 72
    65
 73
     6
 40
23.5
 49
12.0
 74
     0
 49
-1.5
 74
     0
 49
3.5
 74
     0
 49
-1.5
 74
     0
 49
3.5
 74
     0
 49
-1.5
 74
     0
  0
LTYPE
  5
3D
330
5
100
AcDbSymbolTableRecord
100
AcDbLinetypeTableRecord
  2
DASHED_DOTTED
 70
     0
  3
-----------     -     ----------
 72
    65
 73
     4
 40
9.25
 49
6.0
 74
     0
 49
-1.5
 74
     0
 49
0.25
 74
     0
 49
-1.5
 74
     0
  0
LTYPE
  5
3E
330
5
100
AcDbSymbolTableRecord
100
AcDbLinetypeTableRecord
  2
DOUBLE-DASHED_DOTTED
 70
     0
  3
------   -----------   -   -----
 72
    65
 73
     6
 40
16.75
 49
6.0
 74
     0
 49
-1.5
 74
     0
 49
6.0
 74
     0
 49
-1.5
 74
     0
 49
0.25
 74
     0
 49
-1.5
 74
     0
  0
LTYPE
  5
3F
330
5
100
AcDbSymbolTableRecord
100
AcDbLinetypeTableRecord
  2
DASHED_DOUBLE-DOTTED
 70
     0
  3
---------    -    -    ---------
 72
    65
 73
     6
 40
11.0
 49
6.0
 74
     0
 49
-1.5
 74
     0
 49
0.25
 74
     0
 49
-1.5
 74
     0
 49
0.25
 74
     0
 49
-1.5
 74
     0
  0
LTYPE
  5
40
330
5
100
AcDbSymbolTableRecord
100
AcDbLinetypeTableRecord
  2
DOUBLE-DASHED_DOUBLE-DOTTED
 70
     0
  3
-----   ---------   -   -   ----
 72
    65
 73
     8
 40
18.5
 49
6.0
 74
     0
 49
-1.5
 74
     0
 49
6.0
 74
     0
 49
-1.5
 74
     0
 49
0.25
 74
     0
 49
-1.5
 74
     0
 49
0.25
 74
     0
 49
-1.5
 74
     0
  0
LTYPE
  5
41
330
5
100
AcDbSymbolTableRecord
100
AcDbLinetypeTableRecord
  2
DASHED_TRIPLICATE-DOTTED
 70
     0
  3
-------    -    -    -    ------
 72
    65
 73
     8
 40
12.75
 49
6.0
 74
     0
 49
-1.5
 74
     0
 49
0.25
 74
     0
 49
-1.5
 74
     0
 49
0.25
 74
     0
 49
-1.5
 74
     0
 49
0.25
 74
     0
 49
-1.5
 74
     0
  0
LTYPE
  5
42
330
5
100
AcDbSymbolTableRecord
100
AcDbLinetypeTableRecord
  2
DOUBLE-DASHED_TRIPLICATE-DOTTED
 70
     0
  3
-----  ---------  -  -  -  -----
 72
    65
 73
    10
 40
20.25
 49
6.0
 74
     0
 49
-1.5
 74
     0
 49
6.0
 74
     0
 49
-1.5
 74
     0
 49
0.25
 74
     0
 49
-1.5
 74
     0
 49
0.25
 74
     0
 49
-1.5
 74
     0
 49
0.25
 74
     0
 49
-1.5
 74
     0
  0
LTYPE
  5
43
330
5
100
AcDbSymbolTableRecord
100
AcDbLinetypeTableRecord
  2
UNDEFINED
 70
     0
  3
--------------------------------
 72
    65
 73
     0
 40
0.0
  0
LTYPE
  5
560
330
5
100
AcDbSymbolTableRecord
100
AcDbLinetypeTableRecord
  2
AM_ISO02W050
 70
     0
  3
__ __ __ __ __ __ __ __ __ __ __ __ __ __ __
 72
    65
 73
     2
 40
7.5
 49
6.0
 74
     0
 49
-1.5
 74
     0
  0
LTYPE
  5
561
330
5
100
AcDbSymbolTableRecord
100
AcDbLinetypeTableRecord
  2
AM_ISO08W050
 70
     0
  3
____ . ____ . ____ . ____ . ____ . ____ . ____
 72
    65
 73
     4
 40
18.0
 49
12.0
 74
     0
 49
-1.5
 74
     0
 49
3.0
 74
     0
 49
-1.5
 74
     0
  0
LTYPE
  5
562
330
5
100
AcDbSymbolTableRecord
100
AcDbLinetypeTableRecord
  2
AM_ISO09W050
 70
     0
  3
_____ . . _____ . . _____ . . ____ .. ____
 72
    65
 73
     6
 40
22.5
 49
12.0
 74
     0
 49
-1.5
 74
     0
 49
3.0
 74
     0
 49
-1.5
 74
     0
 49
3.0
 74
     0
 49
-1.5
 74
     0
  0
LTYPE
  5
563
330
5
100
AcDbSymbolTableRecord
100
AcDbLinetypeTableRecord
  2
Amconstr
 70
     0
  3
_______________________
 72
    65
 73
     2
 40
9999.0
 49
9999.0
 74
     0
 49
0.0
 74
     0
  0
LTYPE
  5
564
330
5
100
AcDbSymbolTableRecord
100
AcDbLinetypeTableRecord
  2
AM_ISO08W050x2
 70
     0
  3
__ . __ . __ . __ . __ . __
 72
    65
 73
     4
 40
9.0
 49
6.0
 74
     0
 49
-0.75
 74
     0
 49
1.5
 74
     0
 49
-0.75
 74
     0
  0
LTYPE
  5
565
330
5
100
AcDbSymbolTableRecord
100
AcDbLinetypeTableRecord
  2
AM_ISO02W050x2
 70
     0
  3
 _ _ _ _ _ _ _ _ _ _ _ _
 72
    65
 73
     2
 40
3.75
 49
3.0
 74
     0
 49
-0.75
 74
     0
  0
LTYPE
  5
568
330
5
100
AcDbSymbolTableRecord
100
AcDbLinetypeTableRecord
  2
Amzigzag
 70
     0
  3
/\/-/\/-/\/-/\/-/\/-/\/
 72
    65
 73
     2
 40
11.0001
 49
0.0001
 74
     4
 75
   135
340
567
 46
0.04
 50
0.0
 44
0.0
 45
0.0
 49
-11.0
 74
     0
  0
LTYPE
  5
569
330
5
100
AcDbSymbolTableRecord
100
AcDbLinetypeTableRecord
  2
HIDDEN
 70
     0
  3
Hidden __ __ __ __ __ __ __ __ __ __ __ __ __ _
 72
    65
 73
     2
 40
0.375
 49
0.25
 74
     0
 49
-0.125
 74
     0
  0
LTYPE
  5
56A
330
5
100
AcDbSymbolTableRecord
100
AcDbLinetypeTableRecord
  2
CENTER
 70
     0
  3
Center ____ _ ____ _ ____ _ ____ _ ____ _ ____
 72
    65
 73
     4
 40
2.0
 49
1.25
 74
     0
 49
-0.25
 74
     0
 49
0.25
 74
     0
 49
-0.25
 74
     0
  0
LTYPE
  5
56B
330
5
100
AcDbSymbolTableRecord
100
AcDbLinetypeTableRecord
  2
HIDDEN2
 70
     0
  3
Hidden (.5x) _ _ _ _ _ _ _ _ _ _ _ _ _ _ _ _ _
 72
    65
 73
     2
 40
0.1875
 49
0.125
 74
     0
 49
-0.0625
 74
     0
  0
LTYPE
  5
56C
330
5
100
AcDbSymbolTableRecord
100
AcDbLinetypeTableRecord
  2
Amzigzag2
 70
     0
  3
/\/-/\/-/\/-/\/-/\/-/\/
 72
    65
 73
     2
 40
0.4401
 49
0.0001
 74
     4
 75
   135
340
567
 46
0.0016
 50
0.0
 44
0.0
 45
0.0
 49
-0.4400000000000001
 74
     0
  0
LTYPE
  5
579
330
5
100
AcDbSymbolTableRecord
100
AcDbLinetypeTableRecord
  2
ACANSTGB
 70
     0
  3
__ . . __ . .
 72
    65
 73
     6
 40
0.35433070866
 49
0.15748031496
 74
     0
 49
-0.03937007874
 74
     0
 49
0.03937007874
 74
     0
 49
-0.03937007874
 74
     0
 49
0.03937007874
 74
     0
 49
-0.03937007874
 74
     0
  0
LTYPE
  5
57A
330
5
100
AcDbSymbolTableRecord
100
AcDbLinetypeTableRecord
  2
ACANSTGL
 70
     0
  3
_ _ _ _ _
 72
    65
 73
     2
 40
0.11811023622
 49
0.07874015748
 74
     0
 49
-0.03937007874
 74
     0
  0
ENDTAB
  0
TABLE
  2
LAYER
  5
2
330
0
100
AcDbSymbolTable
 70
     4
  0
LAYER
  5
10
330
2
100
AcDbSymbolTableRecord
100
AcDbLayerTableRecord
  2
0
 70
     0
 62
     7
  6
CONTINUOUS
370
    -3
390
F
  0
LAYER
  5
45
330
2
100
AcDbSymbolTableRecord
100
AcDbLayerTableRecord
  2
_0-0_
 70
     0
 62
     7
  6
CONTINUOUS
370
    -3
390
F
  0
LAYER
  5
46
330
2
100
AcDbSymbolTableRecord
100
AcDbLayerTableRecord
  2
ADD_LINE
 70
     0
 62
     7
  6
CONTINUOUS
370
    -3
390
F
  0
LAYER
  5
599
330
2
100
AcDbSymbolTableRecord
100
AcDbLayerTableRecord
  2
AM_CL
 70
     0
 62
     1
  6
Amconstr
370
    15
390
F
  0
ENDTAB
  0
TABLE
  2
STYLE
  5
3
330
0
100
AcDbSymbolTable
 70
     5
  0
STYLE
  5
11
330
3
100
AcDbSymbolTableRecord
100
AcDbTextStyleTableRecord
  2
STANDARD
 70
     0
 40
0.0
 41
1.0
 50
0.0
 71
     0
 42
0.2
  3
txt
  4
bigfont.shx
  0
STYLE
  5
44
330
3
100
AcDbSymbolTableRecord
100
AcDbTextStyleTableRecord
  2
TATEGAKI
 70
     4
 40
0.0
 41
1.0
 50
0.0
 71
     0
 42
1.0
  3
txt
  4
bigfont.shx
  0
STYLE
  5
567
330
3
100
AcDbSymbolTableRecord
100
AcDbTextStyleTableRecord
  2

 70
     1
 40
0.0
 41
1.0
 50
0.0
 71
     0
 42
0.2
  3
ltypeshp.shx
  4

  0
STYLE
  5
56D
330
3
100
AcDbSymbolTableRecord
100
AcDbTextStyleTableRecord
  2
ACANSTS
 70
     0
 40
1.0
 41
1.0
 50
0.0
 71
     0
 42
0.2
  3
romans.shx
  4
extfont.shx
  0
STYLE
  5
578
330
3
100
AcDbSymbolTableRecord
100
AcDbTextStyleTableRecord
  2
ACANSGDT
 70
     0
 40
0.0
 41
1.0
 50
0.0
 71
     0
 42
0.2
  3
amgdtans.shx
  4

  0
ENDTAB
  0
TABLE
  2
VIEW
  5
6
330
0
100
AcDbSymbolTable
 70
     0
  0
ENDTAB
  0
TABLE
  2
UCS
  5
7
330
0
100
AcDbSymbolTable
 70
     0
  0
ENDTAB
  0
TABLE
  2
APPID
  5
9
330
0
100
AcDbSymbolTable
 70
     4
  0
APPID
  5
12
330
9
100
AcDbSymbolTableRecord
100
AcDbRegAppTableRecord
  2
ACAD
 70
     0
  0
APPID
  5
542
330
9
100
AcDbSymbolTableRecord
100
AcDbRegAppTableRecord
  2
MCAD_NO_VIS
 70
     0
  0
APPID
  5
543
330
9
100
AcDbSymbolTableRecord
100
AcDbRegAppTableRecord
  2
ACAD_TEMP_GRAPHIC
 70
     0
  0
APPID
  5
554
330
9
100
AcDbSymbolTableRecord
100
AcDbRegAppTableRecord
  2
ACATTRIBSERVICES
 70
     0
  0
ENDTAB
  0
TABLE
  2
DIMSTYLE
  5
A
330
0
100
AcDbSymbolTable
 70
     7
100
AcDbDimStyleTable
 71
     0
  0
DIMSTYLE
105
53B
330
A
100
AcDbSymbolTableRecord
100
AcDbDimStyleTableRecord
  2
Standard
 70
     0
340
11
  0
DIMSTYLE
105
57F
330
A
100
AcDbSymbolTableRecord
100
AcDbDimStyleTableRecord
  2
AM_ANSI
 70
     0
  4
mm
 41
0.1
 42
0.05
 43
0.5
 44
0.1
 47
0.1
 48
0.1
 78
     7
 79
     2
140
0.12
141
0.0
146
0.71
147
0.06
176
   256
177
   256
178
     2
274
     4
284
     7
340
11
371
    -1
372
    -1
  0
DIMSTYLE
105
580
330
A
100
AcDbSymbolTableRecord
100
AcDbDimStyleTableRecord
  2
AM_ANSI$3
 70
     0
  4
mm
 41
0.1
 42
0.05
 43
0.5
 44
0.1
 47
0.1
 48
0.1
 78
     7
 79
     2
140
0.12
141
0.0
146
0.71
147
0.06
176
   256
177
   256
178
     2
274
     4
284
     7
288
     1
289
     0
340
11
371
    -1
372
    -1
  0
DIMSTYLE
105
581
330
A
100
AcDbSymbolTableRecord
100
AcDbDimStyleTableRecord
  2
AM_ANSI$4
 70
     0
  4
mm
 41
0.1
 42
0.05
 43
0.5
 44
0.1
 47
0.1
 48
0.1
 78
     7
 79
     2
140
0.12
141
0.0
146
0.71
147
0.06
176
   256
177
   256
178
     2
274
     4
284
     7
288
     1
289
     0
340
11
371
    -1
372
    -1
  0
DIMSTYLE
105
582
330
A
100
AcDbSymbolTableRecord
100
AcDbDimStyleTableRecord
  2
AM_ANSI$7
 70
     0
  4
mm
 41
0.1
 42
0.05
 43
0.5
 44
0.1
 47
0.1
 48
0.1
 78
     7
 79
     2
140
0.24
141
0.0
146
0.71
147
0.06
176
   256
177
   256
178
     2
274
     4
284
     7
340
11
371
    -1
372
    -1
  0
DIMSTYLE
105
583
330
A
100
AcDbSymbolTableRecord
100
AcDbDimStyleTableRecord
  2
AM_ANSI$SF
 70
     0
  4
mm
 41
0.1
 42
0.05
 43
0.5
 44
0.1
 47
0.1
 48
0.1
 75
     1
 76
     1
 78
     7
 79
     2
140
0.12
141
0.0
146
0.71
147
0.06
176
   256
177
   256
178
     2
274
     4
284
     7
340
11
371
    -1
372
    -1
  0
DIMSTYLE
105
588
330
A
100
AcDbSymbolTableRecord
100
AcDbDimStyleTableRecord
  2
AM_ANSI$SH
 70
     0
  4
mm
 41
0.1
 42
0.05
 43
0.5
 44
0.1
 47
0.1
 48
0.1
 75
     1
 76
     1
 78
     7
 79
     2
140
0.12
141
0.0
146
0.71
147
0.06
173
     1
176
   256
177
   256
178
     2
274
     4
284
     7
340
11
343
584
371
    -1
372
    -1
  0
ENDTAB
  0
TABLE
  2
BLOCK_RECORD
  5
1
330
0
100
AcDbSymbolTable
 70
     1
  0
BLOCK_RECORD
  5
1E
102
{ACAD_XDICTIONARY
360
5CF
102
}
330
1
100
AcDbSymbolTableRecord
100
AcDbBlockTableRecord
  2
*Model_Space
340
21
  0
BLOCK_RECORD
  5
1A
330
1
100
AcDbSymbolTableRecord
100
AcDbBlockTableRecord
  2
*Paper_Space
340
1D
  0
BLOCK_RECORD
  5
584
330
1
100
AcDbSymbolTableRecord
100
AcDbBlockTableRecord
  2
GENAXEH
340
0
  0
ENDTAB
  0
ENDSEC
  0
SECTION
  2
BLOCKS
  0
BLOCK
  5
1F
330
1E
100
AcDbEntity
  8
0
100
AcDbBlockBegin
  2
*Model_Space
 70
     0
 10
0.0
 20
0.0
 30
0.0
  3
*Model_Space
  1

  0
ENDBLK
  5
20
330
1E
100
AcDbEntity
  8
0
100
AcDbBlockEnd
  0
BLOCK
  5
1B
330
1A
100
AcDbEntity
 67
     1
  8
0
100
AcDbBlockBegin
  2
*Paper_Space
 70
     0
 10
0.0
 20
0.0
 30
0.0
  3
*Paper_Space
  1

  0
ENDBLK
  5
1C
330
1A
100
AcDbEntity
 67
     1
  8
0
100
AcDbBlockEnd
  0
BLOCK
  5
586
330
584
100
AcDbEntity
  8
0
100
AcDbBlockBegin
  2
GENAXEH
 70
     0
 10
0.0
 20
0.0
 30
0.0
  3
GENAXEH
  1

  0
LINE
  5
585
330
584
100
AcDbEntity
  8
0
100
AcDbLine
 10
-1.0
 20
0.0
 30
0.0
 11
1.0
 21
0.0
 31
0.0
  0
ENDBLK
  5
587
330
584
100
AcDbEntity
  8
0
100
AcDbBlockEnd
  0
ENDSEC
  0
SECTION
  2
ENTITIES
  0
LINE
  5
4A
330
1E
100
AcDbEntity
  8
_0-0_
100
AcDbLine
 10
368.0
 20
268.0
 30
0.0
 11
2008.0
 21
268.0
 31
0.0
  0
LINE
  5
4B
330
1E
100
AcDbEntity
  8
_0-0_
100
AcDbLine
 10
2008.0
 20
268.0
 30
0.0
 11
2008.0
 21
1412.0
 31
0.0
  0
LINE
  5
4C
330
1E
100
AcDbEntity
  8
_0-0_
100
AcDbLine
 10
2008.0
 20
1412.0
 30
0.0
 11
368.0
 21
1412.0
 31
0.0
  0
LINE
  5
4D
330
1E
100
AcDbEntity
  8
_0-0_
100
AcDbLine
 10
368.0
 20
1412.0
 30
0.0
 11
368.0
 21
268.0
 31
0.0
  0
LINE
  5
4E
330
1E
100
AcDbEntity
  8
_0-0_
100
AcDbLine
 10
2008.0
 20
268.0
 30
0.0
 11
2008.0
 21
396.0
 31
0.0
  0
LINE
  5
4F
330
1E
100
AcDbEntity
  8
_0-0_
100
AcDbLine
 10
1728.0
 20
268.0
 30
0.0
 11
2008.0
 21
268.0
 31
0.0
  0
LINE
  5
50
330
1E
100
AcDbEntity
  8
_0-0_
100
AcDbLine
 10
1728.0
 20
268.0
 30
0.0
 11
1728.0
 21
396.0
 31
0.0
  0
LINE
  5
51
330
1E
100
AcDbEntity
  8
_0-0_
100
AcDbLine
 10
1728.0
 20
396.0
 30
0.0
 11
2008.0
 21
396.0
 31
0.0
  0
LINE
  5
52
330
1E
100
AcDbEntity
  8
_0-0_
100
AcDbLine
 10
1728.0
 20
300.0
 30
0.0
 11
2008.0
 21
300.0
 31
0.0
  0
LINE
  5
53
330
1E
100
AcDbEntity
  8
_0-0_
100
AcDbLine
 10
1728.0
 20
316.0
 30
0.0
 11
2008.0
 21
316.0
 31
0.0
  0
LINE
  5
54
330
1E
100
AcDbEntity
  8
_0-0_
100
AcDbLine
 10
1728.0
 20
332.0
 30
0.0
 11
2008.0
 21
332.0
 31
0.0
  0
LINE
  5
55
330
1E
100
AcDbEntity
  8
_0-0_
100
AcDbLine
 10
1728.0
 20
348.0
 30
0.0
 11
2008.0
 21
348.0
 31
0.0
  0
LINE
  5
56
330
1E
100
AcDbEntity
  8
_0-0_
100
AcDbLine
 10
1728.0
 20
380.0
 30
0.0
 11
2008.0
 21
380.0
 31
0.0
  0
LINE
  5
57
330
1E
100
AcDbEntity
  8
_0-0_
100
AcDbLine
 10
1764.0
 20
300.0
 30
0.0
 11
1764.0
 21
396.0
 31
0.0
  0
TEXT
  5
58
330
1E
100
AcDbEntity
  8
_0-0_
100
AcDbText
 10
1732.308276142423
 20
300.2755780865157
 30
0.0
 40
12.0
  1
設計
100
AcDbText
  0
TEXT
  5
59
330
1E
100
AcDbEntity
  8
_0-0_
100
AcDbText
 10
1732.308276142423
 20
315.7245558239078
 30
0.0
 40
12.0
  1
材質
100
AcDbText
  0
TEXT
  5
5A
330
1E
100
AcDbEntity
  8
_0-0_
100
AcDbText
 10
1732.308276142423
 20
331.9091991678424
 30
0.0
 40
12.0
  1
図番
100
AcDbText
  0
TEXT
  5
5B
330
1E
100
AcDbEntity
  8
_0-0_
100
AcDbText
 10
1732.308276142423
 20
357.6574953968292
 30
0.0
 40
12.0
  1
品名
100
AcDbText
  0
TEXT
  5
5C
330
1E
100
AcDbEntity
  8
_0-0_
100
AcDbText
 10
1732.308276142423
 20
379.7274635931036
 30
0.0
 40
12.0
  1
型式
100
AcDbText
  0
TEXT
  5
5D
330
1E
100
AcDbEntity
  8
_0-0_
100
AcDbText
 10
1962.57161099022
 20
300.2755780865157
 30
0.0
 40
12.0
  1
山下
100
AcDbText
  0
TEXT
  5
5E
330
1E
100
AcDbEntity
  8
_0-0_
100
AcDbText
 10
1962.697462875727
 20
332.2770319711136
 30
0.0
 40
12.0
  1
1/4
100
AcDbText
  0
TEXT
  5
5F
330
1E
100
AcDbEntity
  8
_0-0_
100
AcDbText
 10
1767.965704584041
 20
300.6434108897869
 30
0.0
 40
12.0
  1
年月日：
100
AcDbText
  0
TEXT
  5
60
330
1E
100
AcDbEntity
  8
_0-0_
100
AcDbText
 10
1767.844454484071
 20
364.4011975416809
 30
0.0
 40
12.0
  1
外形図_
100
AcDbText
  0
TEXT
  5
61
330
1E
100
AcDbEntity
  8
_0-0_
100
AcDbText
 10
1738.651838520498
 20
275.3187917059433
 30
0.0
 40
16.0
  1
株式会社 中部コーポレーション
100
AcDbText
  0
LINE
  5
62
330
1E
100
AcDbEntity
  8
_0-0_
100
AcDbLine
 10
448.0
 20
368.0
 30
0.0
 11
448.0
 21
268.0
 31
0.0
  0
LINE
  5
63
330
1E
100
AcDbEntity
  8
_0-0_
100
AcDbLine
 10
688.0
 20
368.0
 30
0.0
 11
688.0
 21
268.0
 31
0.0
  0
LINE
  5
64
330
1E
100
AcDbEntity
  8
_0-0_
100
AcDbLine
 10
768.0
 20
368.0
 30
0.0
 11
768.0
 21
268.0
 31
0.0
  0
LINE
  5
65
330
1E
100
AcDbEntity
  8
_0-0_
100
AcDbLine
 10
368.0
 20
368.0
 30
0.0
 11
768.0
 21
368.0
 31
0.0
  0
LINE
  5
66
330
1E
100
AcDbEntity
  8
_0-0_
100
AcDbLine
 10
368.0
 20
348.0
 30
0.0
 11
768.0
 21
348.0
 31
0.0
  0
LINE
  5
67
330
1E
100
AcDbEntity
  8
_0-0_
100
AcDbLine
 10
368.0
 20
328.0
 30
0.0
 11
768.0
 21
328.0
 31
0.0
  0
LINE
  5
68
330
1E
100
AcDbEntity
  8
_0-0_
100
AcDbLine
 10
368.0
 20
308.0
 30
0.0
 11
768.0
 21
308.0
 31
0.0
  0
LINE
  5
69
330
1E
100
AcDbEntity
  8
_0-0_
100
AcDbLine
 10
368.0
 20
288.0
 30
0.0
 11
768.0
 21
288.0
 31
0.0
  0
LINE
  5
6A
330
1E
100
AcDbEntity
  8
_0-0_
100
AcDbLine
 10
528.0
 20
348.0
 30
0.0
 11
528.0
 21
268.0
 31
0.0
  0
LINE
  5
6B
330
1E
100
AcDbEntity
  8
_0-0_
100
AcDbLine
 10
608.0
 20
348.0
 30
0.0
 11
608.0
 21
268.0
 31
0.0
  0
LINE
  5
6C
330
1E
100
AcDbEntity
  8
_0-0_
100
AcDbLine
 10
368.0
 20
438.0
 30
0.0
 11
768.0
 21
438.0
 31
0.0
  0
LINE
  5
6D
330
1E
100
AcDbEntity
  8
_0-0_
100
AcDbLine
 10
368.0
 20
458.0
 30
0.0
 11
768.0
 21
458.0
 31
0.0
  0
LINE
  5
6E
330
1E
100
AcDbEntity
  8
_0-0_
100
AcDbLine
 10
368.0
 20
478.0
 30
0.0
 11
768.0
 21
478.0
 31
0.0
  0
LINE
  5
6F
330
1E
100
AcDbEntity
  8
_0-0_
100
AcDbLine
 10
368.0
 20
498.0
 30
0.0
 11
768.0
 21
498.0
 31
0.0
  0
LINE
  5
70
330
1E
100
AcDbEntity
  8
_0-0_
100
AcDbLine
 10
368.0
 20
518.0
 30
0.0
 11
768.0
 21
518.0
 31
0.0
  0
LINE
  5
71
330
1E
100
AcDbEntity
  8
_0-0_
100
AcDbLine
 10
368.0
 20
538.0
 30
0.0
 11
768.0
 21
538.0
 31
0.0
  0
LINE
  5
72
330
1E
100
AcDbEntity
  8
_0-0_
100
AcDbLine
 10
368.0
 20
558.0
 30
0.0
 11
768.0
 21
558.0
 31
0.0
  0
LINE
  5
73
330
1E
100
AcDbEntity
  8
_0-0_
100
AcDbLine
 10
368.0
 20
578.0
 30
0.0
 11
768.0
 21
578.0
 31
0.0
  0
LINE
  5
74
330
1E
100
AcDbEntity
  8
_0-0_
100
AcDbLine
 10
368.0
 20
598.0
 30
0.0
 11
768.0
 21
598.0
 31
0.0
  0
LINE
  5
75
330
1E
100
AcDbEntity
  8
_0-0_
100
AcDbLine
 10
368.0
 20
618.0
 30
0.0
 11
768.0
 21
618.0
 31
0.0
  0
LINE
  5
76
330
1E
100
AcDbEntity
  8
_0-0_
100
AcDbLine
 10
368.0
 20
638.0
 30
0.0
 11
768.0
 21
638.0
 31
0.0
  0
LINE
  5
77
330
1E
100
AcDbEntity
  8
_0-0_
100
AcDbLine
 10
368.0
 20
398.0
 30
0.0
 11
768.0
 21
398.0
 31
0.0
  0
LINE
  5
78
330
1E
100
AcDbEntity
  8
_0-0_
100
AcDbLine
 10
768.0
 20
398.0
 30
0.0
 11
768.0
 21
638.0
 31
0.0
  0
TEXT
  5
79
330
1E
100
AcDbEntity
  8
_0-0_
100
AcDbText
 10
373.0
 20
618.0
 30
0.0
 40
12.0
  1
品名
100
AcDbText
  0
TEXT
  5
7A
330
1E
100
AcDbEntity
  8
_0-0_
100
AcDbText
 10
373.0
 20
598.0
 30
0.0
 40
12.0
  1
型式
100
AcDbText
  0
TEXT
  5
7B
330
1E
100
AcDbEntity
  8
_0-0_
100
AcDbText
 10
373.0
 20
578.0
 30
0.0
 40
12.0
  1
電源
100
AcDbText
  0
TEXT
  5
7C
330
1E
100
AcDbEntity
  8
_0-0_
100
AcDbText
 10
373.0
 20
558.0
 30
0.0
 40
12.0
  1
定格消費電力
100
AcDbText
  0
TEXT
  5
7D
330
1E
100
AcDbEntity
  8
_0-0_
100
AcDbText
 10
373.0
 20
538.0
 30
0.0
 40
12.0
  1
定格電流
100
AcDbText
  0
TEXT
  5
7E
330
1E
100
AcDbEntity
  8
_0-0_
100
AcDbText
 10
373.0
 20
518.0
 30
0.0
 40
12.0
  1
定格時間
100
AcDbText
  0
TEXT
  5
7F
330
1E
100
AcDbEntity
  8
_0-0_
100
AcDbText
 10
373.0
 20
498.0
 30
0.0
 40
12.0
  1
氷収容量
100
AcDbText
  0
TEXT
  5
80
330
1E
100
AcDbEntity
  8
_0-0_
100
AcDbText
 10
373.0
 20
478.0
 30
0.0
 40
12.0
  1
氷削能力
100
AcDbText
  0
TEXT
  5
81
330
1E
100
AcDbEntity
  8
_0-0_
100
AcDbText
 10
373.6961833324975
 20
417.9978172730167
 30
0.0
 40
12.0
  1
付属品
100
AcDbText
  0
TEXT
  5
82
330
1E
100
AcDbEntity
  8
_0-0_
100
AcDbText
 10
373.0
 20
458.0
 30
0.0
 40
12.0
  1
重量
100
AcDbText
  0
TEXT
  5
83
330
1E
100
AcDbEntity
  8
_0-0_
100
AcDbText
 10
380.9836545476334
 20
350.6697090085234
 30
0.0
 40
12.0
  1
品　　名
100
AcDbText
  0
TEXT
  5
84
330
1E
100
AcDbEntity
  8
_0-0_
100
AcDbText
 10
372.049577563418
 20
330.5413644719105
 30
0.0
 40
12.0
  1
排水ホース
100
AcDbText
  0
TEXT
  5
85
330
1E
100
AcDbEntity
  8
_0-0_
100
AcDbText
 10
372.049577563418
 20
310.5553614257453
 30
0.0
 40
12.0
  1
電源コード
100
AcDbText
  0
TEXT
  5
86
330
1E
100
AcDbEntity
  8
_0-0_
100
AcDbText
 10
450.7823168361897
 20
311.1470009278548
 30
0.0
 40
12.0
  1
長さ
100
AcDbText
  0
TEXT
  5
87
330
1E
100
AcDbEntity
  8
_0-0_
100
AcDbText
 10
450.7823168361897
 20
331.1470009278548
 30
0.0
 40
12.0
  1
長さ
100
AcDbText
  0
TEXT
  5
88
330
1E
100
AcDbEntity
  8
_0-0_
100
AcDbText
 10
482.9726885033525
 20
329.3300915600217
 30
0.0
 40
12.0
  1
1500mm
100
AcDbText
  0
TEXT
  5
89
330
1E
100
AcDbEntity
  8
_0-0_
100
AcDbText
 10
484.0923219131317
 20
311.1609978816897
 30
0.0
 40
12.0
  1
1900mm
100
AcDbText
  0
TEXT
  5
8A
330
1E
100
AcDbEntity
  8
_0-0_
100
AcDbText
 10
530.1206925649061
 20
331.1470009278548
 30
0.0
 40
12.0
  1
外径
100
AcDbText
  0
TEXT
  5
8B
330
1E
100
AcDbEntity
  8
_0-0_
100
AcDbText
 10
576.7546996726247
 20
330.5413644719105
 30
0.0
 40
12.0
  1
23mm
100
AcDbText
  0
TEXT
  5
8C
330
1E
100
AcDbEntity
  8
_0-0_
100
AcDbText
 10
533.2746018349707
 20
351.2337495540322
 30
0.0
 40
12.0
  1
寸　　　法
100
AcDbText
  0
TEXT
  5
8D
330
1E
100
AcDbEntity
  8
_0-0_
100
AcDbText
 10
612.4872505733443
 20
331.1470009278548
 30
0.0
 40
12.0
  1
内径
100
AcDbText
  0
TEXT
  5
8E
330
1E
100
AcDbEntity
  8
_0-0_
100
AcDbText
 10
651.2479837537857
 20
330.5413644719105
 30
0.0
 40
12.0
  1
19mm
100
AcDbText
  0
TEXT
  5
8F
330
1E
100
AcDbEntity
  8
_0-0_
100
AcDbText
 10
694.0261573049379
 20
329.5416279175061
 30
0.0
 40
12.0
  1
切断可_
100
AcDbText
  0
TEXT
  5
90
330
1E
100
AcDbEntity
  8
_0-0_
100
AcDbText
 10
700.2306033055334
 20
350.6697090085234
 30
0.0
 40
12.0
  1
備　　考
100
AcDbText
  0
TEXT
  5
91
330
1E
100
AcDbEntity
  8
_0-0_
100
AcDbText
 10
693.7806340925405
 20
310.3723394198281
 30
0.0
 40
12.0
  1
アース線付
100
AcDbText
  0
LINE
  5
92
330
1E
100
AcDbEntity
  8
_0-0_
  6
CENTER2
100
AcDbLine
 10
433.5368092443528
 20
1125.624773603302
 30
0.0
 11
844.0267782426777
 21
1125.624773603302
 31
0.0
  0
LINE
  5
93
330
1E
100
AcDbEntity
  8
_0-0_
100
AcDbLine
 10
453.4575148983588
 20
1125.624773603302
 30
0.0
 11
455.694306441778
 21
1125.624773603302
 31
0.0
  0
ARC
  5
94
330
1E
100
AcDbEntity
  8
_0-0_
100
AcDbCircle
 10
618.4575352956151
 20
1125.624758199001
 30
0.0
 40
106.36627030009
100
AcDbArc
 50
222.9359268882113
 51
31.06409915704535
  0
ARC
  5
95
330
1E
100
AcDbEntity
  8
_0-0_
100
AcDbCircle
 10
530.1608214592013
 20
1192.16110457323
 30
0.0
 40
8.077918278049219
100
AcDbArc
 50
53.00000000000409
 51
233.0000000000041
  0
LINE
  5
96
330
1E
100
AcDbEntity
  8
_0-0_
100
AcDbLine
 10
536.5568623437629
 20
1200.648937507962
 30
0.0
 11
536.90918685884
 21
1200.383441942674
 31
0.0
  0
LINE
  5
97
330
1E
100
AcDbEntity
  8
_0-0_
100
AcDbLine
 10
542.5527143631686
 20
1197.848771367431
 30
0.0
 11
541.3363522385131
 21
1198.765365972856
 31
0.0
  0
ARC
  5
98
330
1E
100
AcDbEntity
  8
_0-0_
100
AcDbCircle
 10
618.45751489786
 20
1125.624773603302
 30
0.0
 40
106.8275825234543
100
AcDbArc
 50
211.0898103347362
 51
222.9102155968618
  0
ARC
  5
99
330
1E
100
AcDbEntity
  8
_0-0_
100
AcDbCircle
 10
618.4575157619827
 20
1125.624774633124
 30
0.0
 40
107.8399837498239
100
AcDbArc
 50
211.1454901698852
 51
222.8545358387099
  0
LINE
  5
9A
330
1E
100
AcDbEntity
  8
_0-0_
100
AcDbLine
 10
541.8627247217689
 20
1054.132936900608
 30
0.0
 11
539.4018764038252
 21
1052.278554683933
 31
0.0
  0
CIRCLE
  5
9B
330
1E
100
AcDbEntity
  8
_0-0_
100
AcDbCircle
 10
477.4575148983577
 20
1125.624773603302
 30
0.0
 40
5.5
  0
LINE
  5
9C
330
1E
100
AcDbEntity
  8
_0-0_
100
AcDbLine
 10
523.76478057464
 20
1183.673271638499
 30
0.0
 11
525.4293197431064
 21
1182.418951406541
 31
0.0
  0
LINE
  5
9D
330
1E
100
AcDbEntity
  8
_0-0_
100
AcDbLine
 10
525.2994088836764
 20
1185.70979218912
 30
0.0
 11
528.8935668451176
 21
1183.001399900569
 31
0.0
  0
ARC
  5
9E
330
1E
100
AcDbEntity
  8
_0-0_
100
AcDbCircle
 10
530.1608214592013
 20
1192.16110457323
 30
0.0
 40
10.6279182780492
100
AcDbArc
 50
41.79848063462375
 51
233.0000000000041
  0
LINE
  5
9F
330
1E
100
AcDbEntity
  8
_0-0_
100
AcDbLine
 10
535.0222340347252
 20
1198.612416957341
 30
0.0
 11
538.6163920012207
 21
1195.904024664979
 31
0.0
  0
LINE
  5
A0
330
1E
100
AcDbEntity
  8
_0-0_
100
AcDbLine
 10
528.6488797157148
 20
1071.722574958304
 30
0.0
 11
526.1619419066598
 21
1069.848532899936
 31
0.0
  0
ARC
  5
A1
330
1E
100
AcDbEntity
  8
_0-0_
100
AcDbCircle
 10
618.4575352956151
 20
1125.624758199001
 30
0.0
 40
108.99462955109
100
AcDbArc
 50
148.5957249159781
 51
137.5112040805314
  0
ARC
  5
A2
330
1E
100
AcDbEntity
  8
_0-0_
100
AcDbCircle
 10
618.4575352956151
 20
1125.624758199001
 30
0.0
 40
106.36627030009
100
AcDbArc
 50
147.3554848640058
 51
211.0640725355876
  0
ARC
  5
A3
330
1E
100
AcDbEntity
  8
_0-0_
100
AcDbCircle
 10
618.4575352956151
 20
1125.624758199001
 30
0.0
 40
106.36627030009
100
AcDbArc
 50
42.93595350967028
 51
138.6445150910956
  0
ARC
  5
A4
330
1E
100
AcDbEntity
  8
_0-0_
100
AcDbCircle
 10
618.45751489786
 20
1125.624773603302
 30
0.0
 40
104.7427227641355
100
AcDbArc
 50
149.5786181362373
 51
210.9717387943081
  0
LINE
  5
A5
330
1E
100
AcDbEntity
  8
_0-0_
100
AcDbLine
 10
528.1352710538149
 20
1178.661838369571
 30
0.0
 11
526.8929922886034
 21
1179.597962564455
 31
0.0
  0
ARC
  5
A6
330
1E
100
AcDbEntity
  8
_0-0_
100
AcDbCircle
 10
618.4575148988552
 20
1125.624773603302
 30
0.0
 40
104.7427227641355
100
AcDbArc
 50
223.0264115759824
 51
30.97173879463791
  0
ARC
  5
A7
330
1E
100
AcDbEntity
  8
_0-0_
100
AcDbCircle
 10
618.4575148988552
 20
1125.624773603302
 30
0.0
 40
104.7427227641355
100
AcDbArc
 50
43.02641157672532
 51
136.4234306664114
  0
LINE
  5
A8
330
1E
100
AcDbEntity
  8
_0-0_
100
AcDbLine
 10
695.0523050739509
 20
1197.116610305997
 30
0.0
 11
697.5131533918945
 21
1198.970992522673
 31
0.0
  0
ARC
  5
A9
330
1E
100
AcDbEntity
  8
_0-0_
100
AcDbCircle
 10
618.45751489786
 20
1125.624773603304
 30
0.0
 40
106.8275825234543
100
AcDbArc
 50
31.08981033473619
 51
42.91021559686168
  0
ARC
  5
AA
330
1E
100
AcDbEntity
  8
_0-0_
100
AcDbCircle
 10
618.4575140337373
 20
1125.624772573481
 30
0.0
 40
107.8399837498239
100
AcDbArc
 50
31.14549016988511
 51
42.85453583870988
  0
ARC
  5
AB
330
1E
100
AcDbEntity
  8
_0-0_
100
AcDbCircle
 10
509.2826611413097
 20
914.6230648083536
 30
0.0
 40
398.0
100
AcDbArc
 50
43.14775876203362
 51
52.33872749685041
  0
ARC
  5
AC
330
1E
100
AcDbEntity
  8
_0-0_
100
AcDbCircle
 10
509.28266114131
 20
1336.626482398251
 30
0.0
 40
398.0
100
AcDbArc
 50
307.6612725031496
 51
316.8522412379664
  0
ARC
  5
AD
330
1E
100
AcDbEntity
  8
_0-0_
100
AcDbCircle
 10
501.1817317192313
 20
1330.167907827851
 30
0.0
 40
397.971605224
100
AcDbArc
 50
304.3784920718085
 51
309.1528400531823
  0
LINE
  5
AE
330
1E
100
AcDbEntity
  8
_0-0_
100
AcDbLine
 10
708.2661500806897
 20
1179.526972248819
 30
0.0
 11
710.7530878890599
 21
1181.401014306669
 31
0.0
  0
CIRCLE
  5
AF
330
1E
100
AcDbEntity
  8
_0-0_
100
AcDbCircle
 10
698.4575148978599
 20
1015.124773603302
 30
0.0
 40
5.5
  0
CIRCLE
  5
B0
330
1E
100
AcDbEntity
  8
_0-0_
100
AcDbCircle
 10
698.4575148978599
 20
1236.124773603302
 30
0.0
 40
5.5
  0
LINE
  5
B1
330
1E
100
AcDbEntity
  8
_0-0_
100
AcDbLine
 10
658.4575148983574
 20
1000.042250943659
 30
0.0
 11
725.8992755804181
 21
1001.711785879177
 31
0.0
  0
ARC
  5
B2
330
1E
100
AcDbEntity
  8
_0-0_
100
AcDbCircle
 10
501.1817317192313
 20
921.0816393787537
 30
0.0
 40
397.971605224
100
AcDbArc
 50
50.84715994681778
 51
55.62150792819159
  0
LINE
  5
B3
330
1E
100
AcDbEntity
  8
_0-0_
100
AcDbLine
 10
658.4575148983574
 20
1251.207296262946
 30
0.0
 11
725.8992755804188
 21
1249.537761327428
 31
0.0
  0
LINE
  5
B4
330
1E
100
AcDbEntity
  8
_0-0_
100
AcDbLine
 10
752.457514902457
 20
1021.555077002197
 30
0.0
 11
752.457514902457
 21
1229.694470204408
 31
0.0
  0
LINE
  5
B5
330
1E
100
AcDbEntity
  8
_0-0_
  6
CENTER2
100
AcDbLine
 10
618.4575148983576
 20
983.3970507688194
 30
0.0
 11
618.4575148983576
 21
1270.314344001902
 31
0.0
  0
ARC
  5
B6
330
1E
100
AcDbEntity
  8
_0-0_
100
AcDbCircle
 10
638.5364297261018
 20
1199.051210122962
 30
0.0
 40
220.0
100
AcDbArc
 50
293.5709760392116
 51
322.6643090710173
  0
ARC
  5
B7
330
1E
100
AcDbEntity
  8
_0-0_
100
AcDbCircle
 10
638.5364297261021
 20
1052.198337083643
 30
0.0
 40
220.0
100
AcDbArc
 50
37.3356909289827
 51
66.4290239607885
  0
LINE
  5
B8
330
1E
100
AcDbEntity
  8
_0-0_
100
AcDbLine
 10
658.4575148978595
 20
1255.624773603302
 30
0.0
 11
726.5110824560646
 21
1253.84272822072
 31
0.0
  0
LINE
  5
B9
330
1E
100
AcDbEntity
  8
_0-0_
100
AcDbLine
 10
658.4575148978595
 20
995.6247736033027
 30
0.0
 11
726.5110824560646
 21
997.4068189858851
 31
0.0
  0
LINE
  5
BA
330
1E
100
AcDbEntity
  8
_0-0_
100
AcDbLine
 10
657.4575148978595
 20
1255.624773603302
 30
0.0
 11
470.7262502742465
 21
1250.735043353353
 31
0.0
  0
ARC
  5
BB
330
1E
100
AcDbEntity
  8
_0-0_
100
AcDbCircle
 10
471.2497892404039
 20
1230.741896853843
 30
0.0
 40
20.0
100
AcDbArc
 50
91.49999999999979
 51
176.9567675270097
  0
LINE
  5
BC
330
1E
100
AcDbEntity
  8
_0-0_
100
AcDbLine
 10
657.4575148978595
 20
995.6247736033027
 30
0.0
 11
470.7262502742465
 21
1000.514503853252
 31
0.0
  0
ARC
  5
BD
330
1E
100
AcDbEntity
  8
_0-0_
100
AcDbCircle
 10
2448.457514897861
 20
1125.624773603302
 30
0.0
 40
2000.0
100
AcDbArc
 50
176.9567675270096
 51
183.0432324729903
  0
ARC
  5
BE
330
1E
100
AcDbEntity
  8
_0-0_
100
AcDbCircle
 10
471.2497892404039
 20
1020.507650352763
 30
0.0
 40
20.0
100
AcDbArc
 50
183.0432324729903
 51
268.5
  0
LINE
  5
BF
330
1E
100
AcDbEntity
  8
_0-0_
100
AcDbLine
 10
657.4575149666166
 20
1251.207296262946
 30
0.0
 11
470.3033181900689
 21
1246.306491144811
 31
0.0
  0
ARC
  5
C0
330
1E
100
AcDbEntity
  8
_0-0_
100
AcDbCircle
 10
470.695972414687
 20
1231.311631270179
 30
0.0
 40
15.0
100
AcDbArc
 50
91.49999999999968
 51
176.9411596295694
  0
LINE
  5
C1
330
1E
100
AcDbEntity
  8
_0-0_
100
AcDbLine
 10
657.5214813131517
 20
1000.040575925925
 30
0.0
 11
470.3033181900689
 21
1004.943056061793
 31
0.0
  0
ARC
  5
C2
330
1E
100
AcDbEntity
  8
_0-0_
100
AcDbCircle
 10
2448.457514897861
 20
1125.624773603302
 30
0.0
 40
1995.583356187999
100
AcDbArc
 50
176.9411596295695
 51
183.0588403704304
  0
ARC
  5
C3
330
1E
100
AcDbEntity
  8
_0-0_
100
AcDbCircle
 10
470.695972414687
 20
1019.937915936426
 30
0.0
 40
15.0
100
AcDbArc
 50
183.0588403704304
 51
268.4999999999999
  0
CIRCLE
  5
C5
330
1E
100
AcDbEntity
  8
_0-0_
100
AcDbCircle
 10
618.4575148978596
 20
1125.624773603302
 30
0.0
 40
12.37637617070004
  0
ARC
  5
C6
330
1E
100
AcDbEntity
  8
_0-0_
100
AcDbCircle
 10
618.4575148983576
 20
1125.624773603302
 30
0.0
 40
100.495885235884
100
AcDbArc
 50
144.2495410189926
 51
141.7504589810073
  0
CIRCLE
  5
C7
330
1E
100
AcDbEntity
  8
_0-0_
100
AcDbCircle
 10
538.0627304577313
 20
1186.206589025677
 30
0.0
 40
2.2
  0
ARC
  5
C8
330
1E
100
AcDbEntity
  8
_0-0_
100
AcDbCircle
 10
538.0627304577313
 20
1186.206589025677
 30
0.0
 40
5.967918278049219
100
AcDbArc
 50
49.67581540514793
 51
236.3241845948518
  0
ARC
  5
C9
330
1E
100
AcDbEntity
  8
_0-0_
100
AcDbCircle
 10
538.0627304577313
 20
1186.206589025677
 30
0.0
 40
2.827918278049219
100
AcDbArc
 50
48.76427475458172
 51
237.2357252454186
  0
ARC
  5
CA
330
1E
100
AcDbEntity
  8
_0-0_
100
AcDbCircle
 10
731.4575149013203
 20
1125.625511966351
 30
0.0
 40
92.0
100
AcDbArc
 50
318.0496570926166
 51
41.94910633804707
  0
LINE
  5
CB
330
1E
100
AcDbEntity
  8
_0-0_
100
AcDbLine
 10
816.7234831802909
 20
1125.624773602927
 30
0.0
 11
816.7234831802909
 21
1125.624773602927
 31
0.0
  0
LINE
  5
CC
330
1E
100
AcDbEntity
  8
_0-0_
100
AcDbLine
 10
816.7234831802909
 20
1125.624773602927
 30
0.0
 11
816.2746116263452
 21
1135.001804956458
 31
0.0
  0
LINE
  5
CD
330
1E
100
AcDbEntity
  8
_0-0_
100
AcDbLine
 10
816.2746116263452
 20
1135.001804956458
 30
0.0
 11
814.9416356995343
 21
1144.093919957319
 31
0.0
  0
LINE
  5
CE
330
1E
100
AcDbEntity
  8
_0-0_
100
AcDbLine
 10
814.9416356995343
 20
1144.093919957319
 30
0.0
 11
812.7650571988763
 21
1152.624859292041
 31
0.0
  0
LINE
  5
CF
330
1E
100
AcDbEntity
  8
_0-0_
100
AcDbLine
 10
812.7650571988763
 20
1152.624859292041
 30
0.0
 11
809.8110103607115
 21
1160.335414685802
 31
0.0
  0
LINE
  5
D0
330
1E
100
AcDbEntity
  8
_0-0_
100
AcDbLine
 10
809.8110103607115
 20
1160.335414685802
 30
0.0
 11
806.1692524033984
 21
1166.991304814692
 31
0.0
  0
LINE
  5
D1
330
1E
100
AcDbEntity
  8
_0-0_
100
AcDbLine
 10
806.1692524033984
 20
1166.991304814692
 30
0.0
 11
801.9504362996508
 21
1172.390293825187
 31
0.0
  0
LINE
  5
D2
330
1E
100
AcDbEntity
  8
_0-0_
100
AcDbLine
 10
801.9504362996508
 20
1172.390293825187
 30
0.0
 11
797.2827486419572
 21
1176.368336168223
 31
0.0
  0
LINE
  5
D3
330
1E
100
AcDbEntity
  8
_0-0_
100
AcDbLine
 10
797.2827486419572
 20
1176.368336168223
 30
0.0
 11
792.3080147578331
 21
1178.804561040195
 31
0.0
  0
LINE
  5
D4
330
1E
100
AcDbEntity
  8
_0-0_
100
AcDbLine
 10
792.3080147578331
 20
1178.804561040195
 30
0.0
 11
787.1773894190105
 21
1179.624944981156
 31
0.0
  0
LINE
  5
D5
330
1E
100
AcDbEntity
  8
_0-0_
100
AcDbLine
 10
787.1773894190105
 20
1179.624944981156
 30
0.0
 11
782.0467640801878
 21
1178.804561040195
 31
0.0
  0
LINE
  5
D6
330
1E
100
AcDbEntity
  8
_0-0_
100
AcDbLine
 10
782.0467640801878
 20
1178.804561040195
 30
0.0
 11
777.0720301960636
 21
1176.368336168223
 31
0.0
  0
LINE
  5
D7
330
1E
100
AcDbEntity
  8
_0-0_
100
AcDbLine
 10
777.0720301960636
 20
1176.368336168223
 30
0.0
 11
772.4043425383702
 21
1172.390293825187
 31
0.0
  0
LINE
  5
D8
330
1E
100
AcDbEntity
  8
_0-0_
100
AcDbLine
 10
772.4043425383702
 20
1172.390293825187
 30
0.0
 11
768.1855264346228
 21
1166.991304814692
 31
0.0
  0
LINE
  5
D9
330
1E
100
AcDbEntity
  8
_0-0_
100
AcDbLine
 10
768.1855264346228
 20
1166.991304814692
 30
0.0
 11
764.5437684773092
 21
1160.335414685802
 31
0.0
  0
LINE
  5
DA
330
1E
100
AcDbEntity
  8
_0-0_
100
AcDbLine
 10
764.5437684773092
 20
1160.335414685802
 30
0.0
 11
761.5897216391446
 21
1152.624859292041
 31
0.0
  0
LINE
  5
DB
330
1E
100
AcDbEntity
  8
_0-0_
100
AcDbLine
 10
761.5897216391446
 20
1152.624859292041
 30
0.0
 11
759.4131431384868
 21
1144.093919957319
 31
0.0
  0
LINE
  5
DC
330
1E
100
AcDbEntity
  8
_0-0_
100
AcDbLine
 10
759.4131431384868
 20
1144.093919957319
 30
0.0
 11
758.0801672116758
 21
1135.001804956458
 31
0.0
  0
LINE
  5
DD
330
1E
100
AcDbEntity
  8
_0-0_
100
AcDbLine
 10
758.0801672116758
 20
1135.001804956458
 30
0.0
 11
757.6312956577301
 21
1125.624773602927
 31
0.0
  0
LINE
  5
DE
330
1E
100
AcDbEntity
  8
_0-0_
100
AcDbLine
 10
757.6312956577301
 20
1125.624773602927
 30
0.0
 11
758.0801672116758
 21
1116.247742249396
 31
0.0
  0
LINE
  5
DF
330
1E
100
AcDbEntity
  8
_0-0_
100
AcDbLine
 10
758.0801672116758
 20
1116.247742249396
 30
0.0
 11
759.4131431384868
 21
1107.155627248535
 31
0.0
  0
LINE
  5
E0
330
1E
100
AcDbEntity
  8
_0-0_
100
AcDbLine
 10
759.4131431384868
 20
1107.155627248535
 30
0.0
 11
761.5897216391446
 21
1098.624687913813
 31
0.0
  0
LINE
  5
E1
330
1E
100
AcDbEntity
  8
_0-0_
100
AcDbLine
 10
761.5897216391446
 20
1098.624687913813
 30
0.0
 11
764.5437684773092
 21
1090.914132520052
 31
0.0
  0
LINE
  5
E2
330
1E
100
AcDbEntity
  8
_0-0_
100
AcDbLine
 10
764.5437684773092
 20
1090.914132520052
 30
0.0
 11
768.1855264346226
 21
1084.258242391162
 31
0.0
  0
LINE
  5
E3
330
1E
100
AcDbEntity
  8
_0-0_
100
AcDbLine
 10
768.1855264346226
 20
1084.258242391162
 30
0.0
 11
772.4043425383702
 21
1078.859253380667
 31
0.0
  0
LINE
  5
E4
330
1E
100
AcDbEntity
  8
_0-0_
100
AcDbLine
 10
772.4043425383702
 20
1078.859253380667
 30
0.0
 11
777.0720301960636
 21
1074.881211037631
 31
0.0
  0
LINE
  5
E5
330
1E
100
AcDbEntity
  8
_0-0_
100
AcDbLine
 10
777.0720301960636
 20
1074.881211037631
 30
0.0
 11
782.0467640801878
 21
1072.444986165659
 31
0.0
  0
LINE
  5
E6
330
1E
100
AcDbEntity
  8
_0-0_
100
AcDbLine
 10
782.0467640801878
 20
1072.444986165659
 30
0.0
 11
787.1773894190103
 21
1071.624602224698
 31
0.0
  0
LINE
  5
E7
330
1E
100
AcDbEntity
  8
_0-0_
100
AcDbLine
 10
787.1773894190103
 20
1071.624602224698
 30
0.0
 11
792.3080147578328
 21
1072.444986165659
 31
0.0
  0
LINE
  5
E8
330
1E
100
AcDbEntity
  8
_0-0_
100
AcDbLine
 10
792.3080147578328
 20
1072.444986165659
 30
0.0
 11
797.2827486419571
 21
1074.881211037631
 31
0.0
  0
LINE
  5
E9
330
1E
100
AcDbEntity
  8
_0-0_
100
AcDbLine
 10
797.2827486419571
 20
1074.881211037631
 30
0.0
 11
801.9504362996507
 21
1078.859253380667
 31
0.0
  0
LINE
  5
EA
330
1E
100
AcDbEntity
  8
_0-0_
100
AcDbLine
 10
801.9504362996507
 20
1078.859253380667
 30
0.0
 11
806.1692524033983
 21
1084.258242391162
 31
0.0
  0
LINE
  5
EB
330
1E
100
AcDbEntity
  8
_0-0_
100
AcDbLine
 10
806.1692524033983
 20
1084.258242391162
 30
0.0
 11
809.8110103607115
 21
1090.914132520052
 31
0.0
  0
LINE
  5
EC
330
1E
100
AcDbEntity
  8
_0-0_
100
AcDbLine
 10
809.8110103607115
 20
1090.914132520052
 30
0.0
 11
812.7650571988763
 21
1098.624687913812
 31
0.0
  0
LINE
  5
ED
330
1E
100
AcDbEntity
  8
_0-0_
100
AcDbLine
 10
812.7650571988763
 20
1098.624687913812
 30
0.0
 11
814.9416356995343
 21
1107.155627248534
 31
0.0
  0
LINE
  5
EE
330
1E
100
AcDbEntity
  8
_0-0_
100
AcDbLine
 10
814.9416356995343
 20
1107.155627248534
 30
0.0
 11
816.2746116263452
 21
1116.247742249395
 31
0.0
  0
LINE
  5
EF
330
1E
100
AcDbEntity
  8
_0-0_
100
AcDbLine
 10
816.2746116263452
 20
1116.247742249395
 30
0.0
 11
816.7234831802909
 21
1125.624773602927
 31
0.0
  0
LINE
  5
F0
330
1E
100
AcDbEntity
  8
_0-0_
100
AcDbLine
 10
816.7234831802909
 20
1125.624773602927
 30
0.0
 11
816.7234831802909
 21
1125.624773602927
 31
0.0
  0
LINE
  5
F1
330
1E
100
AcDbEntity
  8
_0-0_
100
AcDbLine
 10
812.7429811623715
 20
1125.624773603302
 30
0.0
 11
812.7429811623715
 21
1125.624773603302
 31
0.0
  0
LINE
  5
F2
330
1E
100
AcDbEntity
  8
_0-0_
100
AcDbLine
 10
812.7429811623715
 20
1125.624773603302
 30
0.0
 11
812.3244752106392
 21
1134.549297702773
 31
0.0
  0
LINE
  5
F3
330
1E
100
AcDbEntity
  8
_0-0_
100
AcDbLine
 10
812.3244752106392
 20
1134.549297702773
 30
0.0
 11
811.0816734470118
 21
1143.202654653508
 31
0.0
  0
LINE
  5
F4
330
1E
100
AcDbEntity
  8
_0-0_
100
AcDbLine
 10
811.0816734470118
 20
1143.202654653508
 30
0.0
 11
809.0523377741886
 21
1151.32191658337
 31
0.0
  0
LINE
  5
F5
330
1E
100
AcDbEntity
  8
_0-0_
100
AcDbLine
 10
809.0523377741886
 20
1151.32191658337
 30
0.0
 11
806.2981285296954
 21
1158.660383827164
 31
0.0
  0
LINE
  5
F6
330
1E
100
AcDbEntity
  8
_0-0_
100
AcDbLine
 10
806.2981285296954
 20
1158.660383827164
 30
0.0
 11
802.9027309677289
 21
1164.995080771132
 31
0.0
  0
LINE
  5
F7
330
1E
100
AcDbEntity
  8
_0-0_
100
AcDbLine
 10
802.9027309677289
 20
1164.995080771132
 30
0.0
 11
798.9693125250552
 21
1170.133530854142
 31
0.0
  0
LINE
  5
F8
330
1E
100
AcDbEntity
  8
_0-0_
100
AcDbLine
 10
798.9693125250552
 20
1170.133530854142
 30
0.0
 11
794.6173881306492
 21
1173.919604870603
 31
0.0
  0
LINE
  5
F9
330
1E
100
AcDbEntity
  8
_0-0_
100
AcDbLine
 10
794.6173881306492
 20
1173.919604870603
 30
0.0
 11
789.9791888050549
 21
1176.23826487737
 31
0.0
  0
LINE
  5
FA
330
1E
100
AcDbEntity
  8
_0-0_
100
AcDbLine
 10
789.9791888050549
 20
1176.23826487737
 30
0.0
 11
785.1956438877388
 21
1177.019059563438
 31
0.0
  0
LINE
  5
FB
330
1E
100
AcDbEntity
  8
_0-0_
100
AcDbLine
 10
785.1956438877388
 20
1177.019059563438
 30
0.0
 11
780.4120989704228
 21
1176.23826487737
 31
0.0
  0
LINE
  5
FC
330
1E
100
AcDbEntity
  8
_0-0_
100
AcDbLine
 10
780.4120989704228
 20
1176.23826487737
 30
0.0
 11
775.7738996448286
 21
1173.919604870603
 31
0.0
  0
LINE
  5
FD
330
1E
100
AcDbEntity
  8
_0-0_
100
AcDbLine
 10
775.7738996448286
 20
1173.919604870603
 30
0.0
 11
771.4219752504225
 21
1170.133530854142
 31
0.0
  0
LINE
  5
FE
330
1E
100
AcDbEntity
  8
_0-0_
100
AcDbLine
 10
771.4219752504225
 20
1170.133530854142
 30
0.0
 11
767.4885568077487
 21
1164.995080771132
 31
0.0
  0
LINE
  5
FF
330
1E
100
AcDbEntity
  8
_0-0_
100
AcDbLine
 10
767.4885568077487
 20
1164.995080771132
 30
0.0
 11
764.0931592457823
 21
1158.660383827164
 31
0.0
  0
LINE
  5
100
330
1E
100
AcDbEntity
  8
_0-0_
100
AcDbLine
 10
764.0931592457823
 20
1158.660383827164
 30
0.0
 11
761.338950001289
 21
1151.32191658337
 31
0.0
  0
LINE
  5
101
330
1E
100
AcDbEntity
  8
_0-0_
100
AcDbLine
 10
761.338950001289
 20
1151.32191658337
 30
0.0
 11
759.3096143284658
 21
1143.202654653509
 31
0.0
  0
LINE
  5
102
330
1E
100
AcDbEntity
  8
_0-0_
100
AcDbLine
 10
759.3096143284658
 20
1143.202654653509
 30
0.0
 11
758.0668125648385
 21
1134.549297702773
 31
0.0
  0
LINE
  5
103
330
1E
100
AcDbEntity
  8
_0-0_
100
AcDbLine
 10
758.0668125648385
 20
1134.549297702773
 30
0.0
 11
757.6483066131062
 21
1125.624773603302
 31
0.0
  0
LINE
  5
104
330
1E
100
AcDbEntity
  8
_0-0_
100
AcDbLine
 10
757.6483066131062
 20
1125.624773603302
 30
0.0
 11
758.0668125648385
 21
1116.700249503832
 31
0.0
  0
LINE
  5
105
330
1E
100
AcDbEntity
  8
_0-0_
100
AcDbLine
 10
758.0668125648385
 20
1116.700249503832
 30
0.0
 11
759.3096143284658
 21
1108.046892553097
 31
0.0
  0
LINE
  5
106
330
1E
100
AcDbEntity
  8
_0-0_
100
AcDbLine
 10
759.3096143284658
 20
1108.046892553097
 30
0.0
 11
761.338950001289
 21
1099.927630623235
 31
0.0
  0
LINE
  5
107
330
1E
100
AcDbEntity
  8
_0-0_
100
AcDbLine
 10
761.338950001289
 20
1099.927630623235
 30
0.0
 11
764.0931592457823
 21
1092.589163379441
 31
0.0
  0
LINE
  5
108
330
1E
100
AcDbEntity
  8
_0-0_
100
AcDbLine
 10
764.0931592457823
 20
1092.589163379441
 30
0.0
 11
767.4885568077487
 21
1086.254466435473
 31
0.0
  0
LINE
  5
109
330
1E
100
AcDbEntity
  8
_0-0_
100
AcDbLine
 10
767.4885568077487
 20
1086.254466435473
 30
0.0
 11
771.4219752504225
 21
1081.116016352464
 31
0.0
  0
LINE
  5
10A
330
1E
100
AcDbEntity
  8
_0-0_
100
AcDbLine
 10
771.4219752504225
 20
1081.116016352464
 30
0.0
 11
775.7738996448284
 21
1077.329942336002
 31
0.0
  0
LINE
  5
10B
330
1E
100
AcDbEntity
  8
_0-0_
100
AcDbLine
 10
775.7738996448284
 20
1077.329942336002
 30
0.0
 11
780.4120989704225
 21
1075.011282329235
 31
0.0
  0
LINE
  5
10C
330
1E
100
AcDbEntity
  8
_0-0_
100
AcDbLine
 10
780.4120989704225
 20
1075.011282329235
 30
0.0
 11
785.1956438877388
 21
1074.230487643167
 31
0.0
  0
LINE
  5
10D
330
1E
100
AcDbEntity
  8
_0-0_
100
AcDbLine
 10
785.1956438877388
 20
1074.230487643167
 30
0.0
 11
789.9791888050549
 21
1075.011282329235
 31
0.0
  0
LINE
  5
10E
330
1E
100
AcDbEntity
  8
_0-0_
100
AcDbLine
 10
789.9791888050549
 20
1075.011282329235
 30
0.0
 11
794.6173881306492
 21
1077.329942336002
 31
0.0
  0
LINE
  5
10F
330
1E
100
AcDbEntity
  8
_0-0_
100
AcDbLine
 10
794.6173881306492
 20
1077.329942336002
 30
0.0
 11
798.9693125250552
 21
1081.116016352463
 31
0.0
  0
LINE
  5
110
330
1E
100
AcDbEntity
  8
_0-0_
100
AcDbLine
 10
798.9693125250552
 20
1081.116016352463
 30
0.0
 11
802.9027309677287
 21
1086.254466435473
 31
0.0
  0
LINE
  5
111
330
1E
100
AcDbEntity
  8
_0-0_
100
AcDbLine
 10
802.9027309677287
 20
1086.254466435473
 30
0.0
 11
806.2981285296954
 21
1092.58916337944
 31
0.0
  0
LINE
  5
112
330
1E
100
AcDbEntity
  8
_0-0_
100
AcDbLine
 10
806.2981285296954
 20
1092.58916337944
 30
0.0
 11
809.0523377741886
 21
1099.927630623235
 31
0.0
  0
LINE
  5
113
330
1E
100
AcDbEntity
  8
_0-0_
100
AcDbLine
 10
809.0523377741886
 20
1099.927630623235
 30
0.0
 11
811.0816734470118
 21
1108.046892553096
 31
0.0
  0
LINE
  5
114
330
1E
100
AcDbEntity
  8
_0-0_
100
AcDbLine
 10
811.0816734470118
 20
1108.046892553096
 30
0.0
 11
812.3244752106392
 21
1116.700249503832
 31
0.0
  0
LINE
  5
115
330
1E
100
AcDbEntity
  8
_0-0_
100
AcDbLine
 10
812.3244752106392
 20
1116.700249503832
 30
0.0
 11
812.7429811623715
 21
1125.624773603302
 31
0.0
  0
LINE
  5
116
330
1E
100
AcDbEntity
  8
_0-0_
100
AcDbLine
 10
812.7429811623715
 20
1125.624773603302
 30
0.0
 11
812.7429811623715
 21
1125.624773603302
 31
0.0
  0
ARC
  5
117
330
1E
100
AcDbEntity
  8
_0-0_
100
AcDbCircle
 10
733.4575148978594
 20
1125.624773603302
 30
0.0
 40
100.0
100
AcDbArc
 50
323.1301023541559
 51
352.5304076835831
  0
ARC
  5
118
330
1E
100
AcDbEntity
  8
_0-0_
100
AcDbCircle
 10
733.4575148978594
 20
1125.624773603302
 30
0.0
 40
100.0
100
AcDbArc
 50
7.469592316416766
 51
36.8698976458437
  0
LINE
  5
119
330
1E
100
AcDbEntity
  8
_0-0_
100
AcDbLine
 10
841.0375148983577
 20
1133.964773603302
 30
0.0
 11
841.0375148983577
 21
1117.284773603302
 31
0.0
  0
LINE
  5
11A
330
1E
100
AcDbEntity
  8
_0-0_
100
AcDbLine
 10
848.9175148983576
 20
1131.614773603301
 30
0.0
 11
848.9175148983573
 21
1119.634773603303
 31
0.0
  0
LINE
  5
11B
330
1E
100
AcDbEntity
  8
_0-0_
100
AcDbLine
 10
851.90161206836
 20
1138.624773603302
 30
0.0
 11
861.9687483386154
 21
1135.613830374142
 31
0.0
  0
LINE
  5
11C
330
1E
100
AcDbEntity
  8
_0-0_
100
AcDbLine
 10
851.9016120683605
 20
1138.624773603302
 30
0.0
 11
851.9016120683605
 21
1134.624773603302
 31
0.0
  0
LINE
  5
11D
330
1E
100
AcDbEntity
  8
_0-0_
100
AcDbLine
 10
851.90161206836
 20
1112.624773603302
 30
0.0
 11
861.9687483386154
 21
1115.635716832463
 31
0.0
  0
LINE
  5
11E
330
1E
100
AcDbEntity
  8
_0-0_
100
AcDbLine
 10
861.6753129786117
 20
1119.634841216046
 30
0.0
 11
848.9175148983573
 21
1119.634773603303
 31
0.0
  0
LINE
  5
11F
330
1E
100
AcDbEntity
  8
_0-0_
100
AcDbLine
 10
851.9016120683605
 20
1112.624773603303
 30
0.0
 11
851.9016120683605
 21
1116.624773603302
 31
0.0
  0
LINE
  5
120
330
1E
100
AcDbEntity
  8
_0-0_
100
AcDbLine
 10
841.0435351810248
 20
1117.284773603302
 30
0.0
 11
848.9175148983573
 21
1119.634773603303
 31
0.0
  0
LINE
  5
121
330
1E
100
AcDbEntity
  8
_0-0_
100
AcDbLine
 10
861.9687483386154
 20
1115.639218055003
 30
0.0
 11
861.9687483386154
 21
1115.639218055003
 31
0.0
  0
LINE
  5
122
330
1E
100
AcDbEntity
  8
_0-0_
100
AcDbLine
 10
861.9687483386154
 20
1115.639218055003
 30
0.0
 11
862.0450102066335
 21
1115.82441132871
 31
0.0
  0
LINE
  5
123
330
1E
100
AcDbEntity
  8
_0-0_
100
AcDbLine
 10
862.0450102066335
 20
1115.82441132871
 30
0.0
 11
862.1186967300584
 21
1116.307383650908
 31
0.0
  0
LINE
  5
124
330
1E
100
AcDbEntity
  8
_0-0_
100
AcDbLine
 10
862.1186967300584
 20
1116.307383650908
 30
0.0
 11
862.1875689811631
 21
1117.073460151984
 31
0.0
  0
LINE
  5
125
330
1E
100
AcDbEntity
  8
_0-0_
100
AcDbLine
 10
862.1875689811631
 20
1117.073460151984
 30
0.0
 11
862.2495343114483
 21
1118.099363985103
 31
0.0
  0
LINE
  5
126
330
1E
100
AcDbEntity
  8
_0-0_
100
AcDbLine
 10
862.2495343114483
 20
1118.099363985103
 30
0.0
 11
862.3027099357097
 21
1119.353923581431
 31
0.0
  0
LINE
  5
127
330
1E
100
AcDbEntity
  8
_0-0_
100
AcDbLine
 10
862.3027099357097
 20
1119.353923581431
 30
0.0
 11
862.3454801395123
 21
1120.79901978247
 31
0.0
  0
LINE
  5
128
330
1E
100
AcDbEntity
  8
_0-0_
100
AcDbLine
 10
862.3454801395123
 20
1120.79901978247
 30
0.0
 11
862.376545371856
 21
1122.390744071406
 31
0.0
  0
LINE
  5
129
330
1E
100
AcDbEntity
  8
_0-0_
100
AcDbLine
 10
862.376545371856
 20
1122.390744071406
 30
0.0
 11
862.3949617313757
 21
1124.080732711171
 31
0.0
  0
LINE
  5
12A
330
1E
100
AcDbEntity
  8
_0-0_
100
AcDbLine
 10
862.3949617313757
 20
1124.080732711171
 30
0.0
 11
862.400169646307
 21
1125.81763625212
 31
0.0
  0
LINE
  5
12B
330
1E
100
AcDbEntity
  8
_0-0_
100
AcDbLine
 10
862.400169646307
 20
1125.81763625212
 30
0.0
 11
862.3920108767897
 21
1127.548679759079
 31
0.0
  0
LINE
  5
12C
330
1E
100
AcDbEntity
  8
_0-0_
100
AcDbLine
 10
862.3920108767897
 20
1127.548679759079
 30
0.0
 11
862.3707333229074
 21
1129.221266351038
 31
0.0
  0
LINE
  5
12D
330
1E
100
AcDbEntity
  8
_0-0_
100
AcDbLine
 10
862.3707333229074
 20
1129.221266351038
 30
0.0
 11
862.3369834923677
 21
1130.78457533077
 31
0.0
  0
LINE
  5
12E
330
1E
100
AcDbEntity
  8
_0-0_
100
AcDbLine
 10
862.3369834923677
 20
1130.78457533077
 30
0.0
 11
862.2917868566927
 21
1132.191106345998
 31
0.0
  0
LINE
  5
12F
330
1E
100
AcDbEntity
  8
_0-0_
100
AcDbLine
 10
862.2917868566927
 20
1132.191106345998
 30
0.0
 11
862.2365166927879
 21
1133.398122663564
 31
0.0
  0
LINE
  5
130
330
1E
100
AcDbEntity
  8
_0-0_
100
AcDbLine
 10
862.2365166927879
 20
1133.398122663564
 30
0.0
 11
862.1728523566146
 21
1134.368949703439
 31
0.0
  0
LINE
  5
131
330
1E
100
AcDbEntity
  8
_0-0_
100
AcDbLine
 10
862.1728523566146
 20
1134.368949703439
 30
0.0
 11
862.1027282568121
 21
1135.074089377278
 31
0.0
  0
LINE
  5
132
330
1E
100
AcDbEntity
  8
_0-0_
100
AcDbLine
 10
862.1027282568121
 20
1135.074089377278
 30
0.0
 11
862.0282750786683
 21
1135.492116372909
 31
0.0
  0
LINE
  5
133
330
1E
100
AcDbEntity
  8
_0-0_
100
AcDbLine
 10
862.0282750786683
 20
1135.492116372909
 30
0.0
 11
861.9687483386154
 21
1135.610329151601
 31
0.0
  0
LINE
  5
134
330
1E
100
AcDbEntity
  8
_0-0_
100
AcDbLine
 10
852.0543940243765
 20
1116.624773603302
 30
0.0
 11
861.6753129786117
 21
1119.634841216046
 31
0.0
  0
LINE
  5
135
330
1E
100
AcDbEntity
  8
_0-0_
100
AcDbLine
 10
852.0543940243767
 20
1134.624773603302
 30
0.0
 11
861.675312978612
 21
1131.614705990558
 31
0.0
  0
LINE
  5
136
330
1E
100
AcDbEntity
  8
_0-0_
100
AcDbLine
 10
841.0435351810248
 20
1133.964773603302
 30
0.0
 11
848.9175148983573
 21
1131.614773603301
 31
0.0
  0
LINE
  5
137
330
1E
100
AcDbEntity
  8
_0-0_
100
AcDbLine
 10
861.675312978612
 20
1131.614705990558
 30
0.0
 11
848.9175148983573
 21
1131.614773603301
 31
0.0
  0
LINE
  5
138
330
1E
100
AcDbEntity
  8
_0-0_
100
AcDbLine
 10
849.6659440936571
 20
1131.202698270717
 30
0.0
 11
849.6659440936571
 21
1131.202698270717
 31
0.0
  0
LINE
  5
139
330
1E
100
AcDbEntity
  8
_0-0_
100
AcDbLine
 10
849.6659440936571
 20
1131.202698270717
 30
0.0
 11
849.4820351376477
 21
1130.738828708223
 31
0.0
  0
LINE
  5
13A
330
1E
100
AcDbEntity
  8
_0-0_
100
AcDbLine
 10
849.4820351376477
 20
1130.738828708223
 30
0.0
 11
849.316755636074
 21
1130.119571169197
 31
0.0
  0
LINE
  5
13B
330
1E
100
AcDbEntity
  8
_0-0_
100
AcDbLine
 10
849.316755636074
 20
1130.119571169197
 30
0.0
 11
849.1751275229558
 21
1129.363741480603
 31
0.0
  0
LINE
  5
13C
330
1E
100
AcDbEntity
  8
_0-0_
100
AcDbLine
 10
849.1751275229558
 20
1129.363741480603
 30
0.0
 11
849.0614540968429
 21
1128.494305145061
 31
0.0
  0
LINE
  5
13D
330
1E
100
AcDbEntity
  8
_0-0_
100
AcDbLine
 10
849.0614540968429
 20
1128.494305145061
 30
0.0
 11
848.9791892672664
 21
1127.537679545672
 31
0.0
  0
LINE
  5
13E
330
1E
100
AcDbEntity
  8
_0-0_
100
AcDbLine
 10
848.9791892672664
 20
1127.537679545672
 30
0.0
 11
848.9308326094452
 21
1126.522931267195
 31
0.0
  0
LINE
  5
13F
330
1E
100
AcDbEntity
  8
_0-0_
100
AcDbLine
 10
848.9308326094452
 20
1126.522931267195
 30
0.0
 11
848.9178534159572
 21
1125.480892922586
 31
0.0
  0
LINE
  5
140
330
1E
100
AcDbEntity
  8
_0-0_
100
AcDbLine
 10
848.9178534159572
 20
1125.480892922586
 30
0.0
 11
848.9406460530286
 21
1124.443226319648
 31
0.0
  0
LINE
  5
141
330
1E
100
AcDbEntity
  8
_0-0_
100
AcDbLine
 10
848.9406460530286
 20
1124.443226319648
 30
0.0
 11
848.9985179779161
 21
1123.441460433027
 31
0.0
  0
LINE
  5
142
330
1E
100
AcDbEntity
  8
_0-0_
100
AcDbLine
 10
848.9985179779161
 20
1123.441460433027
 30
0.0
 11
849.0897107814662
 21
1122.506033412269
 31
0.0
  0
LINE
  5
143
330
1E
100
AcDbEntity
  8
_0-0_
100
AcDbLine
 10
849.0897107814662
 20
1122.506033412269
 30
0.0
 11
849.2114536164889
 21
1121.665367734053
 31
0.0
  0
LINE
  5
144
330
1E
100
AcDbEntity
  8
_0-0_
100
AcDbLine
 10
849.2114536164889
 20
1121.665367734053
 30
0.0
 11
849.360047388547
 21
1120.945006599612
 31
0.0
  0
LINE
  5
145
330
1E
100
AcDbEntity
  8
_0-0_
100
AcDbLine
 10
849.360047388547
 20
1120.945006599612
 30
0.0
 11
849.5309771510685
 21
1120.366837817497
 31
0.0
  0
LINE
  5
146
330
1E
100
AcDbEntity
  8
_0-0_
100
AcDbLine
 10
849.5309771510685
 20
1120.366837817497
 30
0.0
 11
849.6658872558548
 21
1120.046848935887
 31
0.0
  0
LINE
  5
147
330
1E
100
AcDbEntity
  8
_0-0_
100
AcDbLine
 10
842.0978417042658
 20
1133.205869184942
 30
0.0
 11
842.0978417042658
 21
1133.205869184942
 31
0.0
  0
LINE
  5
148
330
1E
100
AcDbEntity
  8
_0-0_
100
AcDbLine
 10
842.0978417042658
 20
1133.205869184942
 30
0.0
 11
841.8223756741536
 21
1132.487093898607
 31
0.0
  0
LINE
  5
149
330
1E
100
AcDbEntity
  8
_0-0_
100
AcDbLine
 10
841.8223756741536
 20
1132.487093898607
 30
0.0
 11
841.5783034126576
 21
1131.559810482601
 31
0.0
  0
LINE
  5
14A
330
1E
100
AcDbEntity
  8
_0-0_
100
AcDbLine
 10
841.5783034126576
 20
1131.559810482601
 30
0.0
 11
841.3730409319365
 21
1130.452193974292
 31
0.0
  0
LINE
  5
14B
330
1E
100
AcDbEntity
  8
_0-0_
100
AcDbLine
 10
841.3730409319365
 20
1130.452193974292
 30
0.0
 11
841.2128250285993
 21
1129.197898740802
 31
0.0
  0
LINE
  5
14C
330
1E
100
AcDbEntity
  8
_0-0_
100
AcDbLine
 10
841.2128250285993
 20
1129.197898740802
 30
0.0
 11
841.1025237817957
 21
1127.835035908098
 31
0.0
  0
LINE
  5
14D
330
1E
100
AcDbEntity
  8
_0-0_
100
AcDbLine
 10
841.1025237817957
 20
1127.835035908098
 30
0.0
 11
841.0454886390947
 21
1126.405015373709
 31
0.0
  0
LINE
  5
14E
330
1E
100
AcDbEntity
  8
_0-0_
100
AcDbLine
 10
841.0454886390947
 20
1126.405015373709
 30
0.0
 11
841.0434525844465
 21
1124.951287587949
 31
0.0
  0
LINE
  5
14F
330
1E
100
AcDbEntity
  8
_0-0_
100
AcDbLine
 10
841.0434525844465
 20
1124.951287587949
 30
0.0
 11
841.0964774823407
 21
1123.518023333964
 31
0.0
  0
LINE
  5
150
330
1E
100
AcDbEntity
  8
_0-0_
100
AcDbLine
 10
841.0964774823407
 20
1123.518023333964
 30
0.0
 11
841.2029521980869
 21
1122.148771620846
 31
0.0
  0
LINE
  5
151
330
1E
100
AcDbEntity
  8
_0-0_
100
AcDbLine
 10
841.2029521980869
 20
1122.148771620846
 30
0.0
 11
841.3596415513257
 21
1120.885136469023
 31
0.0
  0
LINE
  5
152
330
1E
100
AcDbEntity
  8
_0-0_
100
AcDbLine
 10
841.3596415513257
 20
1120.885136469023
 30
0.0
 11
841.5617846153482
 21
1119.765512793152
 31
0.0
  0
LINE
  5
153
330
1E
100
AcDbEntity
  8
_0-0_
100
AcDbLine
 10
841.5617846153482
 20
1119.765512793152
 30
0.0
 11
841.803239375443
 21
1118.82391979207
 31
0.0
  0
LINE
  5
154
330
1E
100
AcDbEntity
  8
_0-0_
100
AcDbLine
 10
841.803239375443
 20
1118.82391979207
 30
0.0
 11
842.0766693509065
 21
1118.088967292643
 31
0.0
  0
LINE
  5
155
330
1E
100
AcDbEntity
  8
_0-0_
100
AcDbLine
 10
842.0766693509065
 20
1118.088967292643
 30
0.0
 11
842.0978417042661
 21
1118.043678021662
 31
0.0
  0
LINE
  5
156
330
1E
100
AcDbEntity
  8
_0-0_
100
AcDbLine
 10
861.5873941352237
 20
1119.687040471854
 30
0.0
 11
861.5873941352237
 21
1119.687040471854
 31
0.0
  0
LINE
  5
157
330
1E
100
AcDbEntity
  8
_0-0_
100
AcDbLine
 10
861.5873941352237
 20
1119.687040471854
 30
0.0
 11
861.649417389847
 21
1119.728692504642
 31
0.0
  0
LINE
  5
158
330
1E
100
AcDbEntity
  8
_0-0_
100
AcDbLine
 10
861.649417389847
 20
1119.728692504642
 30
0.0
 11
861.7100650760926
 21
1119.949493978052
 31
0.0
  0
LINE
  5
159
330
1E
100
AcDbEntity
  8
_0-0_
100
AcDbLine
 10
861.7100650760926
 20
1119.949493978052
 30
0.0
 11
861.7674944447035
 21
1120.342735951045
 31
0.0
  0
LINE
  5
15A
330
1E
100
AcDbEntity
  8
_0-0_
100
AcDbLine
 10
861.7674944447035
 20
1120.342735951045
 30
0.0
 11
861.8199605333748
 21
1120.896469965262
 31
0.0
  0
LINE
  5
15B
330
1E
100
AcDbEntity
  8
_0-0_
100
AcDbLine
 10
861.8199605333748
 20
1120.896469965262
 30
0.0
 11
861.8658691865512
 21
1121.593871092884
 31
0.0
  0
LINE
  5
15C
330
1E
100
AcDbEntity
  8
_0-0_
100
AcDbLine
 10
861.8658691865512
 20
1121.593871092884
 30
0.0
 11
861.9038254930369
 21
1122.413749153549
 31
0.0
  0
LINE
  5
15D
330
1E
100
AcDbEntity
  8
_0-0_
100
AcDbLine
 10
861.9038254930369
 20
1122.413749153549
 30
0.0
 11
861.9326761696667
 21
1123.331192567264
 31
0.0
  0
LINE
  5
15E
330
1E
100
AcDbEntity
  8
_0-0_
100
AcDbLine
 10
861.9326761696667
 20
1123.331192567264
 30
0.0
 11
861.9515446032295
 21
1124.31832528015
 31
0.0
  0
LINE
  5
15F
330
1E
100
AcDbEntity
  8
_0-0_
100
AcDbLine
 10
861.9515446032295
 20
1124.31832528015
 30
0.0
 11
861.95985748592
 21
1125.345153764242
 31
0.0
  0
LINE
  5
160
330
1E
100
AcDbEntity
  8
_0-0_
100
AcDbLine
 10
861.95985748592
 20
1125.345153764242
 30
0.0
 11
861.9573622350037
 21
1126.380478355648
 31
0.0
  0
LINE
  5
161
330
1E
100
AcDbEntity
  8
_0-0_
100
AcDbLine
 10
861.9573622350037
 20
1126.380478355648
 30
0.0
 11
861.9441346674173
 21
1127.392841240559
 31
0.0
  0
LINE
  5
162
330
1E
100
AcDbEntity
  8
_0-0_
100
AcDbLine
 10
861.9441346674173
 20
1127.392841240559
 30
0.0
 11
861.9205766961087
 21
1128.351482284998
 31
0.0
  0
LINE
  5
163
330
1E
100
AcDbEntity
  8
_0-0_
100
AcDbLine
 10
861.9205766961087
 20
1128.351482284998
 30
0.0
 11
861.8874041181149
 21
1129.227273665925
 31
0.0
  0
LINE
  5
164
330
1E
100
AcDbEntity
  8
_0-0_
100
AcDbLine
 10
861.8874041181149
 20
1129.227273665925
 30
0.0
 11
861.8456248654322
 21
1129.993604905401
 31
0.0
  0
LINE
  5
165
330
1E
100
AcDbEntity
  8
_0-0_
100
AcDbLine
 10
861.8456248654322
 20
1129.993604905401
 30
0.0
 11
861.796508379512
 21
1130.627191416499
 31
0.0
  0
LINE
  5
166
330
1E
100
AcDbEntity
  8
_0-0_
100
AcDbLine
 10
861.796508379512
 20
1130.627191416499
 30
0.0
 11
861.7415470399242
 21
1131.108781993688
 31
0.0
  0
LINE
  5
167
330
1E
100
AcDbEntity
  8
_0-0_
100
AcDbLine
 10
861.7415470399242
 20
1131.108781993688
 30
0.0
 11
861.6824108191616
 21
1131.423743750978
 31
0.0
  0
LINE
  5
168
330
1E
100
AcDbEntity
  8
_0-0_
100
AcDbLine
 10
861.6824108191616
 20
1131.423743750978
 30
0.0
 11
861.6208965413671
 21
1131.562506734751
 31
0.0
  0
LINE
  5
169
330
1E
100
AcDbEntity
  8
_0-0_
100
AcDbLine
 10
861.6208965413671
 20
1131.562506734751
 30
0.0
 11
861.5873941352237
 21
1131.562506734751
 31
0.0
  0
LINE
  5
16A
330
1E
100
AcDbEntity
  8
_0-0_
100
AcDbLine
 10
822.5345108821612
 20
1138.624773603302
 30
0.0
 11
851.90161206836
 21
1138.624773603302
 31
0.0
  0
LINE
  5
16B
330
1E
100
AcDbEntity
  8
_0-0_
100
AcDbLine
 10
823.0163118024902
 20
1134.624773603302
 30
0.0
 11
852.0543940243767
 21
1134.624773603302
 31
0.0
  0
LINE
  5
16C
330
1E
100
AcDbEntity
  8
_0-0_
100
AcDbLine
 10
841.0375148983575
 20
1133.964773603302
 30
0.0
 11
823.0787827126231
 21
1133.964773603302
 31
0.0
  0
LINE
  5
16D
330
1E
100
AcDbEntity
  8
_0-0_
100
AcDbLine
 10
841.0375148983577
 20
1117.284773603302
 30
0.0
 11
823.0786482907255
 21
1117.284773603302
 31
0.0
  0
LINE
  5
16E
330
1E
100
AcDbEntity
  8
_0-0_
100
AcDbLine
 10
823.0161666439052
 20
1116.624773603302
 30
0.0
 11
852.0543940243765
 21
1116.624773603302
 31
0.0
  0
LINE
  5
16F
330
1E
100
AcDbEntity
  8
_0-0_
100
AcDbLine
 10
822.5343000993913
 20
1112.624773603302
 30
0.0
 11
851.90161206836
 21
1112.624773603302
 31
0.0
  0
TEXT
  5
170
330
1E
100
AcDbEntity
  8
_0-0_
100
AcDbText
 10
373.5635795200137
 20
437.9582668608031
 30
0.0
 40
12.0
  1
外形寸法
100
AcDbText
  0
LINE
  5
171
330
1E
100
AcDbEntity
  8
_0-0_
100
AcDbLine
 10
473.0
 20
398.0
 30
0.0
 11
473.0
 21
638.0
 31
0.0
  0
TEXT
  5
172
330
1E
100
AcDbEntity
  8
_0-0_
100
AcDbText
 10
635.4675373330299
 20
397.5984316334333
 30
0.0
 40
12.0
  1
取扱説明書：１
100
AcDbText
  0
TEXT
  5
173
330
1E
100
AcDbEntity
  8
_0-0_
100
AcDbText
 10
620.3282897708373
 20
417.7840950496899
 30
0.0
 40
12.0
  1
ｶｯﾌﾟﾘﾝｸﾞｶﾊﾞｰ：１
100
AcDbText
  0
TEXT
  5
174
330
1E
100
AcDbEntity
  8
_0-0_
100
AcDbText
 10
478.0
 20
398.0
 30
0.0
 40
12.0
  1
ボトルキャップＢ：１
100
AcDbText
  0
TEXT
  5
175
330
1E
100
AcDbEntity
  8
_0-0_
100
AcDbText
 10
478.0
 20
418.0
 30
0.0
 40
12.0
  1
排水ホース：１
100
AcDbText
  0
TEXT
  5
176
330
1E
100
AcDbEntity
  8
_0-0_
100
AcDbText
 10
478.0
 20
458.0
 30
0.0
 40
12.0
  1
19.5Kg
100
AcDbText
  0
TEXT
  5
177
330
1E
100
AcDbEntity
  8
_0-0_
100
AcDbText
 10
478.0
 20
478.0
 30
0.0
 40
12.0
  1
1.2/1.6 Kg/min
100
AcDbText
  0
TEXT
  5
178
330
1E
100
AcDbEntity
  8
_0-0_
100
AcDbText
 10
478.0
 20
498.0
 30
0.0
 40
12.0
  1
3cm角　ｷｭｰﾌﾞｱｲｽ　約120個
100
AcDbText
  0
TEXT
  5
179
330
1E
100
AcDbEntity
  8
_0-0_
100
AcDbText
 10
478.0
 20
518.0
 30
0.0
 40
12.0
  1
20分
100
AcDbText
  0
TEXT
  5
17A
330
1E
100
AcDbEntity
  8
_0-0_
100
AcDbText
 10
478.0
 20
538.0
 30
0.0
 40
12.0
  1
5.0/4.5A
100
AcDbText
  0
TEXT
  5
17B
330
1E
100
AcDbEntity
  8
_0-0_
100
AcDbText
 10
478.0
 20
558.0
 30
0.0
 40
12.0
  1
400/500W
100
AcDbText
  0
TEXT
  5
17C
330
1E
100
AcDbEntity
  8
_0-0_
100
AcDbText
 10
478.0
 20
578.0
 30
0.0
 40
12.0
  1
単相100V　50/60Hz
100
AcDbText
  0
TEXT
  5
17D
330
1E
100
AcDbEntity
  8
_0-0_
100
AcDbText
 10
478.0
 20
618.0
 30
0.0
 40
12.0
  1
マルチスライス＆ブレンダー
100
AcDbText
  0
TEXT
  5
17E
330
1E
100
AcDbEntity
  8
_0-0_
100
AcDbText
 10
390.9807601407538
 20
643.0317172318413
 30
0.0
 40
12.0
  1
主な仕様
100
AcDbText
  0
LINE
  5
1AC
330
1E
100
AcDbEntity
  8
_0-0_
100
AcDbLine
 10
1717.199287021784
 20
404.5656903765689
 30
0.0
 11
1717.199287021784
 21
1255.624773603302
 31
0.0
  0
LINE
  5
1AD
330
1E
100
AcDbEntity
  8
_0-0_
100
AcDbLine
 10
1467.11087753765
 20
769.973512749796
 30
0.0
 11
1450.699287021784
 21
866.4736649830857
 31
0.0
  0
LINE
  5
1AE
330
1E
100
AcDbEntity
  8
_0-0_
100
AcDbLine
 10
1375.699287021784
 20
701.4736649830856
 30
0.0
 11
1659.699287021784
 21
701.4736649830856
 31
0.0
  0
LINE
  5
1AF
330
1E
100
AcDbEntity
  8
_0-0_
100
AcDbLine
 10
1382.699287021784
 20
865.9736649830858
 30
0.0
 11
1382.699287021784
 21
866.4736649830857
 31
0.0
  0
LINE
  5
1B0
330
1E
100
AcDbEntity
  8
_0-0_
100
AcDbLine
 10
1375.699287021784
 20
866.4736649830857
 30
0.0
 11
1382.699287021784
 21
866.4736649830857
 31
0.0
  0
LINE
  5
1B1
330
1E
100
AcDbEntity
  8
_0-0_
100
AcDbLine
 10
1442.699287021784
 20
866.4736649830857
 30
0.0
 11
1450.699287021784
 21
866.4736649830857
 31
0.0
  0
LINE
  5
1B2
330
1E
100
AcDbEntity
  8
_0-0_
100
AcDbLine
 10
1442.699287021784
 20
865.9736649830858
 30
0.0
 11
1442.699287021784
 21
866.4736649830857
 31
0.0
  0
LINE
  5
1B3
330
1E
100
AcDbEntity
  8
_0-0_
100
AcDbLine
 10
1382.699287021784
 20
865.9736649830858
 30
0.0
 11
1442.699287021784
 21
865.9736649830858
 31
0.0
  0
LINE
  5
1B4
330
1E
100
AcDbEntity
  8
_0-0_
100
AcDbLine
 10
1375.699287021784
 20
701.4736649830856
 30
0.0
 11
1375.699287021784
 21
866.4736649830857
 31
0.0
  0
LINE
  5
1B5
330
1E
100
AcDbEntity
  8
_0-0_
100
AcDbLine
 10
1659.699287021784
 20
760.973512749796
 30
0.0
 11
1660.699287021784
 21
760.973512749796
 31
0.0
  0
LINE
  5
1B6
330
1E
100
AcDbEntity
  8
_0-0_
100
AcDbLine
 10
1659.699287021784
 20
698.4736649830856
 30
0.0
 11
1659.699287021784
 21
760.973512749796
 31
0.0
  0
LINE
  5
1B7
330
1E
100
AcDbEntity
  8
_0-0_
100
AcDbLine
 10
1467.387408149894
 20
765.9736649830858
 30
0.0
 11
1660.699287021784
 21
765.9736649830858
 31
0.0
  0
LINE
  5
1B8
330
1E
100
AcDbEntity
  8
_0-0_
100
AcDbLine
 10
1467.387408149894
 20
769.973512749796
 30
0.0
 11
1467.387408149894
 21
765.9736649830858
 31
0.0
  0
LINE
  5
1B9
330
1E
100
AcDbEntity
  8
_0-0_
100
AcDbLine
 10
1467.11087753765
 20
769.973512749796
 30
0.0
 11
1467.387408149894
 21
769.973512749796
 31
0.0
  0
LINE
  5
1BA
330
1E
100
AcDbEntity
  8
_0-0_
100
AcDbLine
 10
1659.699287021784
 20
493.446688459086
 30
0.0
 11
1659.699287021784
 21
700.4736649830857
 31
0.0
  0
LINE
  5
1BB
330
1E
100
AcDbEntity
  8
_0-0_
100
AcDbLine
 10
1688.304563551901
 20
769.2179070699451
 30
0.0
 11
1717.175417864628
 21
769.4736649830858
 31
0.0
  0
LINE
  5
1BC
330
1E
100
AcDbEntity
  8
_0-0_
100
AcDbLine
 10
1729.199287021861
 20
757.9736649830856
 30
0.0
 11
1729.199287021886
 21
788.9736649830856
 31
0.0
  0
LINE
  5
1BD
330
1E
100
AcDbEntity
  8
_0-0_
100
AcDbLine
 10
1729.199287021886
 20
788.9736649830856
 30
0.0
 11
1717.199287021886
 21
789.3927142169865
 31
0.0
  0
LINE
  5
1BE
330
1E
100
AcDbEntity
  8
_0-0_
100
AcDbLine
 10
1729.199287021861
 20
757.9736649830856
 30
0.0
 11
1717.199287021861
 21
757.5546157491845
 31
0.0
  0
LINE
  5
1BF
330
1E
100
AcDbEntity
  8
_0-0_
100
AcDbLine
 10
1688.299287021855
 20
765.9735127497683
 30
0.0
 11
1660.707696265437
 21
765.4918997416423
 31
0.0
  0
LINE
  5
1C0
330
1E
100
AcDbEntity
  8
_0-0_
100
AcDbLine
 10
1688.299287021855
 20
765.9735127497683
 30
0.0
 11
1688.299287021856
 21
769.8135403715663
 31
0.0
  0
LINE
  5
1C1
330
1E
100
AcDbEntity
  8
_0-0_
100
AcDbLine
 10
1717.199287021649
 20
491.4736649830858
 30
0.0
 11
1717.199287021955
 21
876.4736649830856
 31
0.0
  0
LINE
  5
1C2
330
1E
100
AcDbEntity
  8
_0-0_
100
AcDbLine
 10
1374.69928702165
 20
493.44585493004
 30
0.0
 11
1374.699287021947
 21
866.4736649830857
 31
0.0
  0
LINE
  5
1C3
330
1E
100
AcDbEntity
  8
_0-0_
100
AcDbLine
 10
1374.699287021815
 20
866.4736649830857
 30
0.0
 11
1363.960698664234
 21
866.0986652143837
 31
0.0
  0
LINE
  5
1C4
330
1E
100
AcDbEntity
  8
_0-0_
100
AcDbLine
 10
1375.699287021784
 20
494.9466884590861
 30
0.0
 11
1374.699287021651
 21
494.9641435240166
 31
0.0
  0
LINE
  5
1C5
330
1E
100
AcDbEntity
  8
_0-0_
100
AcDbLine
 10
1375.699287021784
 20
493.446688459086
 30
0.0
 11
1659.699287021784
 21
493.446688459086
 31
0.0
  0
LINE
  5
1C6
330
1E
100
AcDbEntity
  8
_0-0_
100
AcDbLine
 10
1375.699287021784
 20
493.446688459086
 30
0.0
 11
1375.699287021784
 21
700.4736649830857
 31
0.0
  0
LINE
  5
1C7
330
1E
100
AcDbEntity
  8
_0-0_
100
AcDbLine
 10
1375.699287021784
 20
698.4736649830856
 30
0.0
 11
1375.699287021784
 21
700.4736649830857
 31
0.0
  0
LINE
  5
1C8
330
1E
100
AcDbEntity
  8
_0-0_
100
AcDbLine
 10
1375.699287021784
 20
700.4736649830857
 30
0.0
 11
1659.699287021784
 21
700.4736649830857
 31
0.0
  0
LINE
  5
1C9
330
1E
100
AcDbEntity
  8
_0-0_
100
AcDbLine
 10
1375.699287021784
 20
864.9736649830858
 30
0.0
 11
1374.699287021946
 21
864.9562099181604
 31
0.0
  0
LINE
  5
1CE
330
1E
100
AcDbEntity
  8
_0-0_
100
AcDbLine
 10
1468.237138142015
 20
766.4736649830851
 30
0.0
 11
1451.655505488953
 21
863.9736649830851
 31
0.0
  0
LINE
  5
1D1
330
1E
100
AcDbEntity
  8
_0-0_
100
AcDbLine
 10
1140.199269846714
 20
761.9695502191125
 30
0.0
 11
1134.311554229383
 21
761.815374959735
 31
0.0
  0
ARC
  5
1D2
330
1E
100
AcDbEntity
  8
_0-0_
100
AcDbCircle
 10
1134.547146764154
 20
752.8184590349556
 30
0.0
 40
9.0
100
AcDbArc
 50
91.50000000000055
 51
176.9803698557197
  0
ARC
  5
1D3
330
1E
100
AcDbEntity
  8
_0-0_
100
AcDbCircle
 10
1122.218672610238
 20
669.8524778463526
 30
0.0
 40
4.0
100
AcDbArc
 50
92.00000000000008
 51
179.7267373197256
  0
ARC
  5
1D4
330
1E
100
AcDbEntity
  8
_0-0_
100
AcDbCircle
 10
2828.199269846713
 20
661.7160257524375
 30
0.0
 40
1710.0
100
AcDbArc
 50
179.7267373197284
 51
180.0081206135964
  0
ARC
  5
1D5
330
1E
100
AcDbEntity
  8
_0-0_
100
AcDbCircle
 10
2828.199269846713
 20
661.2313042138776
 30
0.0
 40
1710.0
100
AcDbArc
 50
179.9918793864036
 51
180.2732626802716
  0
ARC
  5
1D6
330
1E
100
AcDbEntity
  8
_0-0_
100
AcDbCircle
 10
1122.218672610238
 20
653.0948521199636
 30
0.0
 40
4.0
100
AcDbArc
 50
180.2732626802744
 51
267.9999999999999
  0
ARC
  5
1D7
330
1E
100
AcDbEntity
  8
_0-0_
100
AcDbCircle
 10
1134.547146764154
 20
570.1288709313604
 30
0.0
 40
9.0
100
AcDbArc
 50
183.0196301442803
 51
268.4999999999994
  0
LINE
  5
1D8
330
1E
100
AcDbEntity
  8
_0-0_
100
AcDbLine
 10
1140.199269846714
 20
560.9777797472016
 30
0.0
 11
1134.311554229383
 21
561.1319550065783
 31
0.0
  0
LINE
  5
1D9
330
1E
100
AcDbEntity
  8
_0-0_
100
AcDbLine
 10
1140.199269846714
 20
562.9784653321832
 30
0.0
 11
1140.199269846714
 21
560.9777797472016
 31
0.0
  0
LINE
  5
1DA
330
1E
100
AcDbEntity
  8
_0-0_
100
AcDbLine
 10
1140.198379174138
 20
561.0081856567023
 30
0.0
 11
1299.723156179023
 21
558.2236703164239
 31
0.0
  0
LINE
  5
1DB
330
1E
100
AcDbEntity
  8
_0-0_
100
AcDbLine
 10
1140.198379174138
 20
561.0081856567023
 30
0.0
 11
1140.198379174138
 21
761.9391443096137
 31
0.0
  0
ARC
  5
1DC
330
1E
100
AcDbEntity
  8
_0-0_
100
AcDbCircle
 10
2823.092920005182
 20
661.2013042138815
 30
0.0
 40
1700.0
100
AcDbArc
 50
179.9908361143965
 51
183.0870019621573
  0
ARC
  5
1DD
330
1E
100
AcDbEntity
  8
_0-0_
100
AcDbCircle
 10
2823.092920005182
 20
661.7460257524344
 30
0.0
 40
1700.0
100
AcDbArc
 50
176.9129980378426
 51
180.0091950822207
  0
LINE
  5
1DE
330
1E
100
AcDbEntity
  8
_0-0_
100
AcDbLine
 10
1122.079074623428
 20
673.8500411544274
 30
0.0
 11
1123.136349634661
 21
673.8975217138502
 31
0.0
  0
LINE
  5
1DF
330
1E
100
AcDbEntity
  8
_0-0_
100
AcDbLine
 10
1122.079074623428
 20
649.0972888118878
 30
0.0
 11
1123.136349634661
 21
649.0498082524648
 31
0.0
  0
LINE
  5
1E0
330
1E
100
AcDbEntity
  8
_0-0_
100
AcDbLine
 10
1140.198379174138
 20
761.9391443096137
 30
0.0
 11
1299.723156178858
 21
764.7236596498883
 31
0.0
  0
LINE
  5
1E1
330
1E
100
AcDbEntity
  8
_0-0_
100
AcDbLine
 10
1299.723156179027
 20
552.609360401169
 30
0.0
 11
1304.764729392638
 21
552.4773421604122
 31
0.0
  0
LINE
  5
1E2
330
1E
100
AcDbEntity
  8
_0-0_
100
AcDbLine
 10
1299.699287021871
 20
770.3373445291251
 30
0.0
 11
1304.764729392638
 21
770.4699878057594
 31
0.0
  0
LINE
  5
1E3
330
1E
100
AcDbEntity
  8
_0-0_
100
AcDbLine
 10
1299.699287021697
 20
552.6099854370507
 30
0.0
 11
1299.699287021871
 21
770.3373445291251
 31
0.0
  0
LINE
  5
1E4
330
1E
100
AcDbEntity
  8
_0-0_
100
AcDbLine
 10
1451.192484300696
 20
863.5736649830858
 30
0.0
 11
1454.235559752425
 21
863.5736649830858
 31
0.0
  0
LINE
  5
1E5
330
1E
100
AcDbEntity
  8
_0-0_
100
AcDbLine
 10
1470.323995126574
 20
768.9736649830856
 30
0.0
 11
1660.699287021784
 21
768.9736649830856
 31
0.0
  0
LINE
  5
1E6
330
1E
100
AcDbEntity
  8
_0-0_
100
AcDbLine
 10
1312.420091048039
 20
495.6206923767657
 30
0.0
 11
1374.69928702165
 21
493.44585493004
 31
0.0
  0
LINE
  5
1E7
330
1E
100
AcDbEntity
  8
_0-0_
100
AcDbLine
 10
1304.699287021658
 20
503.6158189929249
 30
0.0
 11
1304.699287021891
 21
795.4736649871851
 31
0.0
  0
ARC
  5
1E8
330
1E
100
AcDbEntity
  8
_0-0_
100
AcDbCircle
 10
1312.699287021658
 20
503.6158189929185
 30
0.0
 40
8.0
100
AcDbArc
 50
179.9999999999544
 51
268.0
  0
ARC
  5
1E9
330
1E
100
AcDbEntity
  8
_0-0_
100
AcDbCircle
 10
1743.199287021873
 20
783.9736649830861
 30
0.0
 40
5.0
100
AcDbArc
 50
0.0
 51
90.0
  0
ARC
  5
1EA
330
1E
100
AcDbEntity
  8
_0-0_
100
AcDbCircle
 10
1743.199287021873
 20
762.9736649830861
 30
0.0
 40
5.0
100
AcDbArc
 50
270.0
 51
0.0
  0
LINE
  5
1EB
330
1E
100
AcDbEntity
  8
_0-0_
100
AcDbLine
 10
1748.199287021873
 20
762.9736649830861
 30
0.0
 11
1748.199287021873
 21
783.9736649830861
 31
0.0
  0
LINE
  5
1EC
330
1E
100
AcDbEntity
  8
_0-0_
100
AcDbLine
 10
1743.199287021873
 20
788.9736649830857
 30
0.0
 11
1729.199287021873
 21
788.9736649830857
 31
0.0
  0
LINE
  5
1ED
330
1E
100
AcDbEntity
  8
_0-0_
100
AcDbLine
 10
1743.199287021873
 20
757.9736649830858
 30
0.0
 11
1729.199287021873
 21
757.9736649830858
 31
0.0
  0
LINE
  5
1EE
330
1E
100
AcDbEntity
  8
_0-0_
100
AcDbLine
 10
1717.199287021955
 20
876.4736649830856
 30
0.0
 11
1684.421842322258
 21
875.3290513921989
 31
0.0
  0
LINE
  5
1EF
330
1E
100
AcDbEntity
  8
_0-0_
100
AcDbLine
 10
1660.699287021892
 20
796.8991847322127
 30
0.0
 11
1685.077297122498
 21
796.4736649830857
 31
0.0
  0
LINE
  5
1F0
330
1E
100
AcDbEntity
  8
_0-0_
100
AcDbLine
 10
1685.077297122498
 20
796.4736649830857
 30
0.0
 11
1688.299287021856
 21
769.8135403715663
 31
0.0
  0
ARC
  5
1F2
330
1E
100
AcDbEntity
  8
_0-0_
100
AcDbCircle
 10
1461.957938148671
 20
824.0702931262141
 30
0.0
 40
2.0
100
AcDbArc
 50
37.74707176417869
 51
99.69999999999998
  0
LINE
  5
1F3
330
1E
100
AcDbEntity
  8
_0-0_
100
AcDbLine
 10
1463.748239303133
 20
828.434330451482
 30
0.0
 11
1464.733942772222
 21
828.6028198310468
 31
0.0
  0
ARC
  5
1F4
330
1E
100
AcDbEntity
  8
_0-0_
100
AcDbCircle
 10
1464.818187462005
 20
828.1099680965024
 30
0.0
 40
0.5
100
AcDbArc
 50
9.700000000000008
 51
99.69999999999998
  0
ARC
  5
1F5
330
1E
100
AcDbEntity
  8
_0-0_
100
AcDbCircle
 10
1463.832483992916
 20
827.9414787169375
 30
0.0
 40
0.5
100
AcDbArc
 50
99.69999999999997
 51
189.7
  0
LINE
  5
1F6
330
1E
100
AcDbEntity
  8
_0-0_
100
AcDbLine
 10
1463.435886684495
 20
827.2941224411908
 30
0.0
 11
1463.339632258372
 21
827.8572340271548
 31
0.0
  0
ARC
  5
1F7
330
1E
100
AcDbEntity
  8
_0-0_
100
AcDbCircle
 10
1462.943034949951
 20
827.2098777514084
 30
0.0
 40
0.5
100
AcDbArc
 50
291.7000000000001
 51
9.699999999999967
  0
LINE
  5
1F8
330
1E
100
AcDbEntity
  8
_0-0_
100
AcDbLine
 10
1465.594046875075
 20
826.538549674329
 30
0.0
 11
1465.311039196549
 21
828.1942127862851
 31
0.0
  0
ARC
  5
1F9
330
1E
100
AcDbEntity
  8
_0-0_
100
AcDbCircle
 10
1477.44427840455
 20
829.7964854553864
 30
0.0
 40
1.0
100
AcDbArc
 50
93.00000000000007
 51
189.6518334668043
  0
LINE
  5
1FA
330
1E
100
AcDbEntity
  8
_0-0_
100
AcDbLine
 10
1477.391942448308
 20
830.7951149901411
 30
0.0
 11
1523.321871250656
 21
833.2022005613003
 31
0.0
  0
LINE
  5
1FB
330
1E
100
AcDbEntity
  8
_0-0_
100
AcDbLine
 10
1463.127908328587
 20
826.7453114656415
 30
0.0
 11
1461.163176900464
 21
825.9634498705155
 31
0.0
  0
ARC
  5
1FC
330
1E
100
AcDbEntity
  8
_0-0_
100
AcDbCircle
 10
1461.957938148671
 20
824.0702931262141
 30
0.0
 40
2.0
100
AcDbArc
 50
9.700000000000008
 51
37.74707176417869
  0
ARC
  5
1FD
330
1E
100
AcDbEntity
  8
_0-0_
100
AcDbCircle
 10
1465.101195140532
 20
826.4543049845466
 30
0.0
 40
0.5
100
AcDbArc
 50
291.7000000000001
 51
9.700000000000018
  0
LINE
  5
1FE
330
1E
100
AcDbEntity
  8
_0-0_
100
AcDbLine
 10
1465.286068519168
 20
825.9897386987795
 30
0.0
 11
1463.539379871707
 21
825.2946468645763
 31
0.0
  0
LINE
  5
1FF
330
1E
100
AcDbEntity
  8
_0-0_
100
AcDbLine
 10
1477.003381822398
 20
826.4245294730526
 30
0.0
 11
1464.753652364132
 21
819.584875690931
 31
0.0
  0
LINE
  5
200
330
1E
100
AcDbEntity
  8
_0-0_
100
AcDbLine
 10
1470.323995126574
 20
768.9736649830856
 30
0.0
 11
1454.235559752425
 21
863.5736649830858
 31
0.0
  0
LINE
  5
201
330
1E
100
AcDbEntity
  8
_0-0_
100
AcDbLine
 10
1476.458433640729
 20
829.6288247812674
 30
0.0
 11
1486.773937007767
 21
768.9736649830856
 31
0.0
  0
LINE
  5
202
330
1E
100
AcDbEntity
  8
_0-0_
100
AcDbLine
 10
1681.40622009285
 20
875.7240483156063
 30
0.0
 11
1684.404392573907
 21
875.8287468057137
 31
0.0
  0
ARC
  5
203
330
1E
100
AcDbEntity
  8
_0-0_
100
AcDbCircle
 10
1670.675417864628
 20
849.7861174292557
 30
0.0
 40
10.0
100
AcDbArc
 50
89.86323967294842
 51
176.040479491546
  0
LINE
  5
204
330
1E
100
AcDbEntity
  8
_0-0_
100
AcDbLine
 10
1670.699287021895
 20
874.8498492017175
 30
0.0
 11
1670.699287021895
 21
859.786088942382
 31
0.0
  0
LINE
  5
205
330
1E
100
AcDbEntity
  8
_0-0_
100
AcDbLine
 10
1684.421842322258
 20
875.3290513921989
 30
0.0
 11
1670.699287021895
 21
874.8498492017175
 31
0.0
  0
LINE
  5
206
330
1E
100
AcDbEntity
  8
_0-0_
100
AcDbLine
 10
1660.723156179102
 20
848.9736649830831
 30
0.0
 11
1660.733156179102
 21
848.9736649830831
 31
0.0
  0
LINE
  5
207
330
1E
100
AcDbEntity
  8
_0-0_
100
AcDbLine
 10
1566.583192844899
 20
861.4994802267011
 30
0.0
 11
1658.779141512793
 21
858.9176580089933
 31
0.0
  0
LINE
  5
208
330
1E
100
AcDbEntity
  8
_0-0_
100
AcDbLine
 10
1563.672705182937
 20
897.7129854956897
 30
0.0
 11
1651.723156179109
 21
905.4164017761992
 31
0.0
  0
LINE
  5
209
330
1E
100
AcDbEntity
  8
_0-0_
100
AcDbLine
 10
1570.50297578064
 20
884.2570790161961
 30
0.0
 11
1637.681869349333
 21
890.1344706316709
 31
0.0
  0
ARC
  5
20A
330
1E
100
AcDbEntity
  8
_0-0_
100
AcDbCircle
 10
1636.723156179109
 20
901.09261231068
 30
0.0
 40
15.0
100
AcDbArc
 50
274.9999999999997
 51
0.0
  0
ARC
  5
20B
330
1E
100
AcDbEntity
  8
_0-0_
100
AcDbCircle
 10
1636.723156179109
 20
901.09261231068
 30
0.0
 40
11.0
100
AcDbArc
 50
274.9999999999997
 51
0.0
  0
LINE
  5
20C
330
1E
100
AcDbEntity
  8
_0-0_
100
AcDbLine
 10
1651.723156179109
 20
905.4164017761992
 30
0.0
 11
1651.723156179109
 21
901.0926123106797
 31
0.0
  0
LINE
  5
20D
330
1E
100
AcDbEntity
  8
_0-0_
100
AcDbLine
 10
1647.723156179109
 20
904.9789584585695
 30
0.0
 11
1647.723156179109
 21
901.09261231068
 31
0.0
  0
LINE
  5
20E
330
1E
100
AcDbEntity
  8
_0-0_
100
AcDbLine
 10
1660.72315617911
 20
856.9184417519535
 30
0.0
 11
1660.72315617911
 21
855.4542394276424
 31
0.0
  0
ARC
  5
20F
330
1E
100
AcDbEntity
  8
_0-0_
100
AcDbCircle
 10
1658.723156179109
 20
856.9184417519535
 30
0.0
 40
2.0
100
AcDbArc
 50
0.0
 51
88.39592879725687
  0
LINE
  5
210
330
1E
100
AcDbEntity
  8
_0-0_
100
AcDbLine
 10
1557.723156179107
 20
870.3103532429112
 30
0.0
 11
1557.723156179107
 21
865.1048358698684
 31
0.0
  0
LINE
  5
211
330
1E
100
AcDbEntity
  8
_0-0_
100
AcDbLine
 10
1660.723156179102
 20
848.9736649830831
 30
0.0
 11
1660.733156179102
 21
848.9736649830831
 31
0.0
  0
LINE
  5
212
330
1E
100
AcDbEntity
  8
_0-0_
100
AcDbLine
 10
1570.851598751631
 20
880.2723002238293
 30
0.0
 11
1638.030492320324
 21
886.1496918393038
 31
0.0
  0
LINE
  5
213
330
1E
100
AcDbEntity
  8
_0-0_
100
AcDbLine
 10
1561.723156179107
 20
870.3103532429112
 30
0.0
 11
1561.723156179108
 21
861.5515680251228
 31
0.0
  0
ARC
  5
214
330
1E
100
AcDbEntity
  8
_0-0_
100
AcDbCircle
 10
1571.723156179107
 20
870.3103532429116
 30
0.0
 40
10.0
100
AcDbArc
 50
94.99999999999969
 51
180.000000000003
  0
ARC
  5
215
330
1E
100
AcDbEntity
  8
_0-0_
100
AcDbCircle
 10
1571.723156179107
 20
870.3103532429116
 30
0.0
 40
14.0
100
AcDbArc
 50
94.99999999999969
 51
180.0000000000018
  0
LINE
  5
216
330
1E
100
AcDbEntity
  8
_0-0_
100
AcDbLine
 10
1680.723156179086
 20
848.2752495932498
 30
0.0
 11
1660.72315617911
 21
848.9736649830829
 31
0.0
  0
ARC
  5
217
330
1E
100
AcDbEntity
  8
_0-0_
100
AcDbCircle
 10
1560.735850278014
 20
868.8314882463862
 30
0.0
 40
29.03043230980399
100
AcDbArc
 50
84.19375712187839
 51
190.4630288172221
  0
ARC
  5
218
330
1E
100
AcDbEntity
  8
_0-0_
100
AcDbCircle
 10
1566.723156179108
 20
866.4975208693007
 30
0.0
 40
5.0
100
AcDbArc
 50
180.0000000000037
 51
268.395928797262
  0
ARC
  5
219
330
1E
100
AcDbEntity
  8
_0-0_
100
AcDbCircle
 10
1555.723156179107
 20
865.1048358698684
 30
0.0
 40
2.0
100
AcDbArc
 50
271.4999999999997
 51
0.0000000000018701
  0
ARC
  5
21A
330
1E
100
AcDbEntity
  8
_0-0_
100
AcDbCircle
 10
1533.223156179106
 20
861.0144528608435
 30
0.0
 40
1.5
100
AcDbArc
 50
91.49999999999991
 51
180.0000000000033
  0
LINE
  5
21B
330
1E
100
AcDbEntity
  8
_0-0_
100
AcDbLine
 10
1533.183890756644
 20
862.5139388483074
 30
0.0
 11
1555.775510075723
 21
863.1055212199171
 31
0.0
  0
ARC
  5
21C
330
1E
100
AcDbEntity
  8
_0-0_
100
AcDbCircle
 10
1529.723156179108
 20
862.4736649830859
 30
0.0
 40
1.0
100
AcDbArc
 50
90.0
 51
180.0
  0
LINE
  5
21D
330
1E
100
AcDbEntity
  8
_0-0_
100
AcDbLine
 10
1531.723156179108
 20
859.439353757893
 30
0.0
 11
1531.723156179108
 21
863.4736649830859
 31
0.0
  0
ARC
  5
21E
330
1E
100
AcDbEntity
  8
_0-0_
100
AcDbCircle
 10
1523.269535294413
 20
834.200830096055
 30
0.0
 40
1.0
100
AcDbArc
 50
272.9999999999994
 51
350.768302060134
  0
ARC
  5
21F
330
1E
100
AcDbEntity
  8
_0-0_
100
AcDbCircle
 10
1724.627258423347
 20
801.4736649830858
 30
0.0
 40
203.0
100
AcDbArc
 50
164.806195238506
 51
170.768302060133
  0
LINE
  5
220
330
1E
100
AcDbEntity
  8
_0-0_
100
AcDbLine
 10
1529.723156179108
 20
863.4736649830859
 30
0.0
 11
1531.723156179105
 21
863.4736649830859
 31
0.0
  0
ARC
  5
221
330
1E
100
AcDbEntity
  8
_0-0_
100
AcDbCircle
 10
1724.627258423347
 20
801.4736649830858
 30
0.0
 40
203.0
100
AcDbArc
 50
170.2225182543503
 51
189.2126148443404
  0
LINE
  5
222
330
1E
100
AcDbEntity
  8
_0-0_
100
AcDbLine
 10
1531.723156179105
 20
863.4736649830859
 30
0.0
 11
1531.723156179105
 21
768.9736649830856
 31
0.0
  0
LINE
  5
223
330
1E
100
AcDbEntity
  8
_0-0_
100
AcDbLine
 10
1467.387408149894
 20
769.4734125167712
 30
0.0
 11
1467.72697699683
 21
769.4734125167712
 31
0.0
  0
LINE
  5
224
330
1E
100
AcDbEntity
  8
_0-0_
100
AcDbLine
 10
1467.387408149894
 20
766.4736649830851
 30
0.0
 11
1688.299287021855
 21
766.4736649830851
 31
0.0
  0
LINE
  5
227
330
1E
100
AcDbEntity
  8
_0-0_
100
AcDbLine
 10
1660.699287021651
 20
493.4466884593695
 30
0.0
 11
1660.699287021867
 21
766.4736649830851
 31
0.0
  0
LINE
  5
228
330
1E
100
AcDbEntity
  8
_0-0_
100
AcDbLine
 10
1660.699287021867
 20
766.4736649830851
 30
0.0
 11
1660.699287021938
 21
855.4542394276424
 31
0.0
  0
LINE
  5
229
330
1E
100
AcDbEntity
  8
_0-0_
100
AcDbLine
 10
1680.723156179113
 20
766.4736649830851
 30
0.0
 11
1680.723156179086
 21
848.2752495932498
 31
0.0
  0
LINE
  5
22A
330
1E
100
AcDbEntity
  8
_0-0_
  6
CENTER2
100
AcDbLine
 10
1738.406187128776
 20
801.4736649830854
 30
0.0
 11
1488.820870790425
 21
801.4736649830856
 31
0.0
  0
LINE
  5
22B
330
1E
100
AcDbEntity
  8
_0-0_
100
AcDbLine
 10
1528.723156179109
 20
862.4736649830859
 30
0.0
 11
1528.723156179109
 21
768.9736649830856
 31
0.0
  0
LINE
  5
22C
330
1E
100
AcDbEntity
  8
_0-0_
100
AcDbLine
 10
1463.592366327719
 20
826.3786788235215
 30
0.0
 11
1473.404785041063
 21
768.9736649830856
 31
0.0
  0
LINE
  5
22D
330
1E
100
AcDbEntity
  8
_0-0_
100
AcDbLine
 10
1460.635255920453
 20
825.8732106848269
 30
0.0
 11
1463.592366327719
 21
826.3786788235215
 31
0.0
  0
LINE
  5
22E
330
1E
100
AcDbEntity
  8
_0-0_
100
AcDbLine
 10
1490.715189787834
 20
815.8415786399942
 30
0.0
 11
1465.044208049381
 21
785.2480939277725
 31
0.0
  0
LINE
  5
22F
330
1E
100
AcDbEntity
  8
_0-0_
100
AcDbLine
 10
1498.337331996867
 20
809.4458419236131
 30
0.0
 11
1467.695554272109
 21
835.1573463110748
 31
0.0
  0
LINE
  5
230
330
1E
100
AcDbEntity
  8
_0-0_
100
AcDbLine
 10
1506.050783313106
 20
818.638375241041
 30
0.0
 11
1498.337331996867
 21
809.4458419236131
 31
0.0
  0
LINE
  5
231
330
1E
100
AcDbEntity
  8
_0-0_
100
AcDbLine
 10
1506.050783313106
 20
818.638375241041
 30
0.0
 11
1475.409005588347
 21
844.3498796285025
 31
0.0
  0
LINE
  5
232
330
1E
100
AcDbEntity
  8
_0-0_
100
AcDbLine
 10
1475.409005588347
 20
844.3498796285025
 30
0.0
 11
1467.695554272109
 21
835.1573463110748
 31
0.0
  0
LINE
  5
233
330
1E
100
AcDbEntity
  8
_0-0_
100
AcDbLine
 10
1475.355998703298
 20
828.7294702142094
 30
0.0
 11
1460.633383729764
 21
811.1837409271187
 31
0.0
  0
LINE
  5
234
330
1E
100
AcDbEntity
  8
_0-0_
100
AcDbLine
 10
1363.960698664234
 20
866.0986652143838
 30
0.0
 11
1304.699287021697
 21
795.4736649871851
 31
0.0
  0
LINE
  5
235
330
1E
100
AcDbEntity
  8
_0-0_
100
AcDbLine
 10
1337.457401249418
 20
835.0017035290902
 30
0.0
 11
1335.070054123865
 21
833.5350043828787
 31
0.0
  0
LINE
  5
236
330
1E
100
AcDbEntity
  8
_0-0_
100
AcDbLine
 10
1325.230103007157
 20
820.2524834617289
 30
0.0
 11
1337.443067591201
 21
834.8073278809895
 31
0.0
  0
LINE
  5
237
330
1E
100
AcDbEntity
  8
_0-0_
100
AcDbLine
 10
1325.041169375539
 20
820.2046145869124
 30
0.0
 11
1326.071027588254
 21
822.810382179213
 31
0.0
  0
ARC
  5
238
330
1E
100
AcDbEntity
  8
_0-0_
100
AcDbCircle
 10
1320.523831236272
 20
829.4231435262268
 30
0.0
 40
0.4999999999999999
100
AcDbArc
 50
140.0
 51
230.0000000000001
  0
LINE
  5
239
330
1E
100
AcDbEntity
  8
_0-0_
100
AcDbLine
 10
1320.202437431429
 20
829.0401213046674
 30
0.0
 11
1320.585459652989
 21
828.718727499824
 31
0.0
  0
LINE
  5
23A
330
1E
100
AcDbEntity
  8
_0-0_
100
AcDbLine
 10
1320.140809014713
 20
829.7445373310702
 30
0.0
 11
1327.211472721265
 21
838.171026205379
 31
0.0
  0
ARC
  5
23B
330
1E
100
AcDbEntity
  8
_0-0_
100
AcDbCircle
 10
1327.594494942825
 20
837.8496324005356
 30
0.0
 40
0.4999999999999999
100
AcDbArc
 50
50.00000000000004
 51
140.0
  0
LINE
  5
23C
330
1E
100
AcDbEntity
  8
_0-0_
100
AcDbLine
 10
1327.915888747667
 20
838.2326546220951
 30
0.0
 11
1328.298910969227
 21
837.9112608172519
 31
0.0
  0
ARC
  5
23D
330
1E
100
AcDbEntity
  8
_0-0_
100
AcDbCircle
 10
1320.815633758091
 20
828.2151764030723
 30
0.0
 40
0.4999999999999999
100
AcDbArc
 50
140.0
 51
228.0
  0
LINE
  5
23E
330
1E
100
AcDbEntity
  8
_0-0_
100
AcDbLine
 10
1320.481068454912
 20
827.8436039903336
 30
0.0
 11
1326.071027588254
 21
822.810382179213
 31
0.0
  0
LINE
  5
23F
330
1E
100
AcDbEntity
  8
_0-0_
100
AcDbLine
 10
1320.432611536532
 20
828.5365702079158
 30
0.0
 11
1328.451759085684
 21
838.0934181091603
 31
0.0
  0
ARC
  5
240
330
1E
100
AcDbEntity
  8
_0-0_
100
AcDbCircle
 10
1328.834781307243
 20
837.7720243043171
 30
0.0
 40
0.4999999999999999
100
AcDbArc
 50
52.00000000000006
 51
140.0
  0
LINE
  5
241
330
1E
100
AcDbEntity
  8
_0-0_
100
AcDbLine
 10
1329.142612044906
 20
838.1660296811205
 30
0.0
 11
1335.070054123865
 21
833.5350043828787
 31
0.0
  0
LINE
  5
242
330
1E
100
AcDbEntity
  8
_0-0_
100
AcDbLine
 10
1335.070054123865
 20
833.5350043828787
 30
0.0
 11
1326.071027588254
 21
822.810382179213
 31
0.0
  0
ARC
  5
243
330
1E
100
AcDbEntity
  8
_0-0_
100
AcDbCircle
 10
1337.719134388876
 20
834.57568033288
 30
0.0
 40
0.4999999999999999
100
AcDbArc
 50
68.70884553242189
 51
121.565051177078
  0
ARC
  5
244
330
1E
100
AcDbEntity
  8
_0-0_
100
AcDbCircle
 10
1325.506169804832
 20
820.0208359136194
 30
0.0
 40
0.4999999999999999
100
AcDbArc
 50
158.434948822922
 51
211.2911544675741
  0
LINE
  5
245
330
1E
100
AcDbEntity
  8
_0-0_
100
AcDbLine
 10
1836.189655172436
 20
491.4736649830858
 30
0.0
 11
1836.189655172436
 21
911.4736649830852
 31
0.0
  0
LINE
  5
246
330
1E
100
AcDbEntity
  8
_0-0_
100
AcDbLine
 10
1836.189655172436
 20
491.4736649830858
 30
0.0
 11
1833.083826631205
 21
503.0647748985545
 31
0.0
  0
LINE
  5
247
330
1E
100
AcDbEntity
  8
_0-0_
100
AcDbLine
 10
1836.189655172436
 20
491.4736649830858
 30
0.0
 11
1839.295483713665
 21
503.0647748985545
 31
0.0
  0
LINE
  5
248
330
1E
100
AcDbEntity
  8
_0-0_
100
AcDbLine
 10
1836.189655172436
 20
911.4736649830852
 30
0.0
 11
1833.083826631205
 21
899.8825550676164
 31
0.0
  0
LINE
  5
249
330
1E
100
AcDbEntity
  8
_0-0_
100
AcDbLine
 10
1836.189655172436
 20
911.4736649830852
 30
0.0
 11
1839.295483713665
 21
899.8825550676164
 31
0.0
  0
LINE
  5
24A
330
1E
100
AcDbEntity
  8
_0-0_
100
AcDbLine
 10
1836.189655172436
 20
491.4736649830858
 30
0.0
 11
1729.199287021649
 21
491.4736649830858
 31
0.0
  0
LINE
  5
24B
330
1E
100
AcDbEntity
  8
_0-0_
100
AcDbLine
 10
1836.189655172436
 20
911.4736649830852
 30
0.0
 11
1682.699287021784
 21
911.4736649830852
 31
0.0
  0
LINE
  5
24C
330
1E
100
AcDbEntity
  8
_0-0_
100
AcDbLine
 10
1675.891325475619
 20
432.0348028480952
 30
0.0
 11
1662.022193157747
 21
424.0274555709452
 31
0.0
  0
LINE
  5
24D
330
1E
100
AcDbEntity
  8
_0-0_
100
AcDbLine
 10
1729.199287021653
 20
496.9736649830857
 30
0.0
 11
1729.199287021678
 21
527.9736649830858
 31
0.0
  0
LINE
  5
24E
330
1E
100
AcDbEntity
  8
_0-0_
100
AcDbLine
 10
1729.199287021678
 20
527.9736649830858
 30
0.0
 11
1717.199287021678
 21
528.3927142169869
 31
0.0
  0
LINE
  5
24F
330
1E
100
AcDbEntity
  8
_0-0_
100
AcDbLine
 10
1729.199287021653
 20
496.9736649830857
 30
0.0
 11
1717.199287021653
 21
496.5546157491847
 31
0.0
  0
LINE
  5
250
330
1E
100
AcDbEntity
  8
_0-0_
100
AcDbLine
 10
1717.199287021649
 20
491.4736649830858
 30
0.0
 11
1660.699287021651
 21
493.4466884593695
 31
0.0
  0
LINE
  5
251
330
1E
100
AcDbEntity
  8
_0-0_
100
AcDbLine
 10
1660.699287021653
 20
496.4736649830857
 30
0.0
 11
1659.699287021784
 21
496.5085857525728
 31
0.0
  0
ARC
  5
252
330
1E
100
AcDbEntity
  8
_0-0_
100
AcDbCircle
 10
1743.199287021665
 20
522.9736649830861
 30
0.0
 40
5.0
100
AcDbArc
 50
0.0
 51
90.0
  0
ARC
  5
253
330
1E
100
AcDbEntity
  8
_0-0_
100
AcDbCircle
 10
1743.199287021665
 20
501.9736649830861
 30
0.0
 40
5.0
100
AcDbArc
 50
270.0
 51
0.0
  0
LINE
  5
254
330
1E
100
AcDbEntity
  8
_0-0_
100
AcDbLine
 10
1748.199287021666
 20
501.9736649830861
 30
0.0
 11
1748.199287021666
 21
522.9736649830861
 31
0.0
  0
LINE
  5
255
330
1E
100
AcDbEntity
  8
_0-0_
100
AcDbLine
 10
1743.199287021665
 20
527.9736649830859
 30
0.0
 11
1729.199287021665
 21
527.9736649830859
 31
0.0
  0
LINE
  5
256
330
1E
100
AcDbEntity
  8
_0-0_
100
AcDbLine
 10
1743.199287021665
 20
496.973664983086
 30
0.0
 11
1729.199287021665
 21
496.973664983086
 31
0.0
  0
LINE
  5
257
330
1E
100
AcDbEntity
  8
_0-0_
100
AcDbLine
 10
1636.523156178775
 20
492.3736649832689
 30
0.0
 11
1648.923156178775
 21
492.3736649832689
 31
0.0
  0
LINE
  5
258
330
1E
100
AcDbEntity
  8
_0-0_
100
AcDbLine
 10
1640.223156178775
 20
481.8184276153647
 30
0.0
 11
1640.223156178775
 21
492.3736649832689
 31
0.0
  0
ARC
  5
259
330
1E
100
AcDbEntity
  8
_0-0_
100
AcDbCircle
 10
1655.223156178775
 20
481.8184276153647
 30
0.0
 40
15.0
100
AcDbArc
 50
179.9999999999999
 51
209.9999999999999
  0
LINE
  5
25A
330
1E
100
AcDbEntity
  8
_0-0_
100
AcDbLine
 10
1645.223156178775
 20
481.8184276153647
 30
0.0
 11
1645.223156178775
 21
492.3736649832689
 31
0.0
  0
ARC
  5
25B
330
1E
100
AcDbEntity
  8
_0-0_
100
AcDbCircle
 10
1655.223156178775
 20
481.8184276153647
 30
0.0
 40
10.0
100
AcDbArc
 50
179.9999999999999
 51
209.9999999999999
  0
ARC
  5
25C
330
1E
100
AcDbEntity
  8
_0-0_
100
AcDbCircle
 10
1636.523156178775
 20
494.3736649832689
 30
0.0
 40
2.0
100
AcDbArc
 50
207.6124287622266
 51
270.0
  0
ARC
  5
25D
330
1E
100
AcDbEntity
  8
_0-0_
100
AcDbCircle
 10
1648.923156178775
 20
494.3736649832689
 30
0.0
 40
2.0
100
AcDbArc
 50
270.0
 51
332.3875712377734
  0
LINE
  5
25E
330
1E
100
AcDbEntity
  8
_0-0_
100
AcDbLine
 10
1646.56290214093
 20
476.8184276153648
 30
0.0
 11
1673.286886335605
 21
430.5311292095202
 31
0.0
  0
LINE
  5
25F
330
1E
100
AcDbEntity
  8
_0-0_
100
AcDbLine
 10
1642.232775122008
 20
474.3184276153647
 30
0.0
 11
1668.956759316683
 21
428.0311292095202
 31
0.0
  0
LINE
  5
260
330
1E
100
AcDbEntity
  8
_0-0_
100
AcDbLine
 10
1720.264262343619
 20
633.9115750491385
 30
0.0
 11
1724.310493481007
 21
608.3646770767338
 31
0.0
  0
LINE
  5
261
330
1E
100
AcDbEntity
  8
_0-0_
100
AcDbLine
 10
1738.556082940522
 20
646.2517268309467
 30
0.0
 11
1744.061280360935
 21
611.493278279235
 31
0.0
  0
ARC
  5
262
330
1E
100
AcDbEntity
  8
_0-0_
100
AcDbCircle
 10
1723.740757831596
 20
643.9052098553426
 30
0.0
 40
15.0
100
AcDbArc
 50
9.000000000001577
 51
88.0
  0
LINE
  5
263
330
1E
100
AcDbEntity
  8
_0-0_
100
AcDbLine
 10
1725.414639117333
 20
605.3060177226127
 30
0.0
 11
1724.857914862845
 21
604.9079590623107
 31
0.0
  0
LINE
  5
264
330
1E
100
AcDbEntity
  8
_0-0_
100
AcDbLine
 10
1727.356465264164
 20
598.7223813431448
 30
0.0
 11
1744.14697810267
 21
601.3819633884117
 31
0.0
  0
LINE
  5
265
330
1E
100
AcDbEntity
  8
_0-0_
100
AcDbLine
 10
1744.14697810267
 20
601.3819633884117
 30
0.0
 11
1745.156286305631
 21
604.5792474016625
 31
0.0
  0
ARC
  5
266
330
1E
100
AcDbEntity
  8
_0-0_
100
AcDbCircle
 10
1744.654711810757
 20
605.2624749145943
 30
0.0
 40
0.5
100
AcDbArc
 50
170.5652167394496
 51
252.4347304041805
  0
LINE
  5
267
330
1E
100
AcDbEntity
  8
_0-0_
100
AcDbLine
 10
1725.405435490485
 20
601.4510498702261
 30
0.0
 11
1727.356465264163
 21
598.7223813431455
 31
0.0
  0
ARC
  5
268
330
1E
100
AcDbEntity
  8
_0-0_
100
AcDbCircle
 10
1725.671347667287
 20
602.2558374569116
 30
0.0
 40
0.5
100
AcDbArc
 50
305.5648307624071
 51
27.43511438647096
  0
LINE
  5
269
330
1E
100
AcDbEntity
  8
_0-0_
100
AcDbLine
 10
1743.613955006782
 20
608.8013465055082
 30
0.0
 11
1744.061280360935
 21
611.4932782792314
 31
0.0
  0
ARC
  5
26A
330
1E
100
AcDbEntity
  8
_0-0_
100
AcDbCircle
 10
1744.107191427723
 20
608.7193841174451
 30
0.0
 40
0.5
100
AcDbArc
 50
170.5652217691344
 51
252.4347233646542
  0
LINE
  5
26B
330
1E
100
AcDbEntity
  8
_0-0_
100
AcDbLine
 10
1744.608765677989
 20
608.0361565937469
 30
0.0
 11
1743.956295344521
 21
608.2426972473995
 31
0.0
  0
LINE
  5
26C
330
1E
100
AcDbEntity
  8
_0-0_
100
AcDbLine
 10
1724.310394235205
 20
608.3648682543914
 30
0.0
 11
1725.567593853969
 21
605.943118665391
 31
0.0
  0
ARC
  5
26D
330
1E
100
AcDbEntity
  8
_0-0_
100
AcDbCircle
 10
1725.123827285386
 20
605.7127467213331
 30
0.0
 40
0.5
100
AcDbArc
 50
305.5648237229568
 51
27.4351196660375
  0
LINE
  5
26E
330
1E
100
AcDbEntity
  8
_0-0_
100
AcDbLine
 10
1717.199287021622
 20
633.6963891059878
 30
0.0
 11
1720.264262343619
 21
633.9115750491385
 31
0.0
  0
LINE
  5
26F
330
1E
100
AcDbEntity
  8
_0-0_
100
AcDbLine
 10
1724.264250282133
 20
658.8960722606291
 30
0.0
 11
1717.199287021622
 21
659.3329604437197
 31
0.0
  0
LINE
  5
270
330
1E
100
AcDbEntity
  8
_0-0_
100
AcDbLine
 10
1725.405435490486
 20
601.4510498702261
 30
0.0
 11
1745.156286305631
 21
604.5792474016625
 31
0.0
  0
LINE
  5
271
330
1E
100
AcDbEntity
  8
_0-0_
100
AcDbLine
 10
1724.857919971597
 20
604.9079598715535
 30
0.0
 11
1744.608770786743
 21
608.0361574029897
 31
0.0
  0
LINE
  5
272
330
1E
100
AcDbEntity
  8
_0-0_
100
AcDbLine
 10
1724.301649834294
 20
608.4201118219013
 30
0.0
 11
1744.052500649439
 21
611.5483093533376
 31
0.0
  0
LINE
  5
273
330
1E
100
AcDbEntity
  8
_0-0_
100
AcDbLine
 10
1726.033877988184
 20
605.600445489381
 30
0.0
 11
1743.36434360588
 21
608.3452953326265
 31
0.0
  0
LINE
  5
274
330
1E
100
AcDbEntity
  8
_0-0_
100
AcDbLine
 10
1726.581393507073
 20
602.1435354880535
 30
0.0
 11
1743.911859124769
 21
604.8883853312993
 31
0.0
  0
LINE
  5
275
330
1E
100
AcDbEntity
  8
_0-0_
100
AcDbLine
 10
1724.857914862845
 20
604.9079590623107
 30
0.0
 11
1726.115114257098
 21
602.486209360079
 31
0.0
  0
LINE
  5
276
330
1E
100
AcDbEntity
  8
_0-0_
100
AcDbLine
 10
1725.962159549204
 20
601.8491084939213
 30
0.0
 11
1725.405435490486
 21
601.4510498702261
 31
0.0
  0
LINE
  5
277
330
1E
100
AcDbEntity
  8
_0-0_
100
AcDbLine
 10
1744.161475397011
 20
605.3444373459565
 30
0.0
 11
1744.608765677989
 21
608.0361565937469
 31
0.0
  0
LINE
  5
278
330
1E
100
AcDbEntity
  8
_0-0_
100
AcDbLine
 10
1744.50381578612
 20
604.7857880260086
 30
0.0
 11
1745.156286305631
 21
604.5792474016625
 31
0.0
  0
LINE
  5
279
330
1E
100
AcDbEntity
  8
_0-0_
100
AcDbLine
 10
1661.071297968697
 20
430.5348962950352
 30
0.0
 11
1650.678993123283
 21
424.5348962950352
 31
0.0
  0
LINE
  5
27A
330
1E
100
AcDbEntity
  8
_0-0_
100
AcDbLine
 10
1661.071297968697
 20
430.5348962950352
 30
0.0
 11
1655.071297968697
 21
420.1425914496219
 31
0.0
  0
LINE
  5
27B
330
1E
100
AcDbEntity
  8
_0-0_
100
AcDbLine
 10
1528.105425147174
 20
395.4330614850009
 30
0.0
 11
1625.969463158662
 21
395.4330614850009
 31
0.0
  0
LINE
  5
27C
330
1E
100
AcDbEntity
  8
_0-0_
100
AcDbLine
 10
1625.969463158662
 20
395.4330614850009
 30
0.0
 11
1661.071297968697
 21
430.5348962950352
 31
0.0
  0
TEXT
  5
27D
330
1E
100
AcDbEntity
  8
_0-0_
100
AcDbText
 10
1834.189655172436
 20
688.4736649830854
 30
0.0
 40
16.0
  1
420
 50
90.0
100
AcDbText
  0
TEXT
  5
27E
330
1E
100
AcDbEntity
  8
_0-0_
100
AcDbText
 10
1843.232478716397
 20
548.800685272588
 30
0.0
 40
16.0
  1
排水ホース接続口
100
AcDbText
  0
TEXT
  5
27F
330
1E
100
AcDbEntity
  8
_0-0_
100
AcDbText
 10
1849.399530698526
 20
526.2555608133295
 30
0.0
 40
16.0
  1
（360°回転可）
100
AcDbText
  0
TEXT
  5
280
330
1E
100
AcDbEntity
  8
_0-0_
100
AcDbText
 10
1531.711297071151
 20
394.6242677824269
 30
0.0
 40
16.0
  1
電源コード
100
AcDbText
  0
ARC
  5
281
330
1E
100
AcDbEntity
  8
_0-0_
100
AcDbCircle
 10
1364.677781644164
 20
1125.624773603675
 30
0.0
 40
78.0215053775989
100
AcDbArc
 50
326.9040406128037
 51
359.9999999997262
  0
LINE
  5
282
330
1E
100
AcDbEntity
  8
_0-0_
100
AcDbLine
 10
1532.699287021763
 20
1037.353351693102
 30
0.0
 11
1475.699287021763
 21
1037.353351693102
 31
0.0
  0
LINE
  5
283
330
1E
100
AcDbEntity
  8
_0-0_
100
AcDbLine
 10
1532.699287021763
 20
1037.353351693102
 30
0.0
 11
1557.699287021763
 21
1036.759698611302
 31
0.0
  0
ARC
  5
284
330
1E
100
AcDbEntity
  8
_0-0_
100
AcDbCircle
 10
1412.699287021763
 20
1156.924773603302
 30
0.0
 40
20.7
100
AcDbArc
 50
33.0959593871963
 51
146.9040406128034
  0
ARC
  5
285
330
1E
100
AcDbEntity
  8
_0-0_
100
AcDbCircle
 10
1364.677781644164
 20
1125.62477360293
 30
0.0
 40
78.0215053775989
100
AcDbArc
 50
0.0000000002736294
 51
33.09595938719626
  0
ARC
  5
286
330
1E
100
AcDbEntity
  8
_0-0_
100
AcDbCircle
 10
1412.699287021762
 20
1094.324773603302
 30
0.0
 40
20.7
100
AcDbArc
 50
213.0959593871964
 51
326.9040406128037
  0
ARC
  5
287
330
1E
100
AcDbEntity
  8
_0-0_
100
AcDbCircle
 10
1460.720792399362
 20
1125.624773602929
 30
0.0
 40
78.0215053775989
100
AcDbArc
 50
146.9040406128034
 51
179.999999999726
  0
ARC
  5
288
330
1E
100
AcDbEntity
  8
_0-0_
100
AcDbCircle
 10
1460.720792399362
 20
1125.624773603675
 30
0.0
 40
78.0215053775989
100
AcDbArc
 50
180.0000000002737
 51
213.0959593871963
  0
LINE
  5
289
330
1E
100
AcDbEntity
  8
_0-0_
100
AcDbLine
 10
1660.699287021784
 20
1036.759698611302
 30
0.0
 11
1557.699287021763
 21
1036.759698611302
 31
0.0
  0
LINE
  5
28A
330
1E
100
AcDbEntity
  8
_0-0_
100
AcDbLine
 10
1660.699287021784
 20
1035.624773603302
 30
0.0
 11
1470.323995126553
 21
1035.624773603302
 31
0.0
  0
ARC
  5
28B
330
1E
100
AcDbEntity
  8
_0-0_
100
AcDbCircle
 10
1928.647377862311
 20
1125.624773603302
 30
0.0
 40
474.4118181099073
100
AcDbArc
 50
165.0358580721175
 51
194.9641419278824
  0
LINE
  5
28C
330
1E
100
AcDbEntity
  8
_0-0_
100
AcDbLine
 10
1470.323995126554
 20
1215.624773603302
 30
0.0
 11
1475.699287021763
 21
1213.896195513502
 31
0.0
  0
LINE
  5
28D
330
1E
100
AcDbEntity
  8
_0-0_
100
AcDbLine
 10
1470.323995126553
 20
1035.624773603302
 30
0.0
 11
1475.699287021763
 21
1037.353351693102
 31
0.0
  0
LINE
  5
28E
330
1E
100
AcDbEntity
  8
_0-0_
100
AcDbLine
 10
1375.699287021763
 20
997.6253863298561
 30
0.0
 11
1660.699287021784
 21
997.6253863298561
 31
0.0
  0
LINE
  5
28F
330
1E
100
AcDbEntity
  8
_0-0_
100
AcDbLine
 10
1660.699287021784
 20
999.2963554513021
 30
0.0
 11
1467.387408149873
 21
999.2963554513021
 31
0.0
  0
LINE
  5
290
330
1E
100
AcDbEntity
  8
_0-0_
100
AcDbLine
 10
1467.387408149873
 20
999.2963554513021
 30
0.0
 11
1467.387408149873
 21
1003.124773603302
 31
0.0
  0
LINE
  5
291
330
1E
100
AcDbEntity
  8
_0-0_
100
AcDbLine
 10
1470.323995126553
 20
1003.124773603302
 30
0.0
 11
1470.323995126553
 21
1035.624773603302
 31
0.0
  0
LINE
  5
292
330
1E
100
AcDbEntity
  8
_0-0_
100
AcDbLine
 10
1470.323995126553
 20
1215.624773603302
 30
0.0
 11
1470.323995126553
 21
1248.124773603302
 31
0.0
  0
LINE
  5
293
330
1E
100
AcDbEntity
  8
_0-0_
100
AcDbLine
 10
1466.753026796103
 20
1003.124773603302
 30
0.0
 11
1467.387408149873
 21
1003.124773603302
 31
0.0
  0
LINE
  5
294
330
1E
100
AcDbEntity
  8
_0-0_
100
AcDbLine
 10
1467.387408149873
 20
1251.953191755302
 30
0.0
 11
1467.387408149873
 21
1248.124773603302
 31
0.0
  0
LINE
  5
295
330
1E
100
AcDbEntity
  8
_0-0_
100
AcDbLine
 10
1466.753026796103
 20
1248.124773603302
 30
0.0
 11
1467.387408149873
 21
1248.124773603302
 31
0.0
  0
ARC
  5
296
330
1E
100
AcDbEntity
  8
_0-0_
100
AcDbCircle
 10
1926.101678467642
 20
1125.624773603302
 30
0.0
 40
475.4023914458796
100
AcDbArc
 50
165.0677646099292
 51
194.9322353900708
  0
LINE
  5
297
330
1E
100
AcDbEntity
  8
_0-0_
100
AcDbLine
 10
1467.387408149873
 20
1003.124773603302
 30
0.0
 11
1660.699287021784
 21
1003.124773603302
 31
0.0
  0
LINE
  5
298
330
1E
100
AcDbEntity
  8
_0-0_
100
AcDbLine
 10
1467.387408149873
 20
1248.124773603302
 30
0.0
 11
1660.699287021784
 21
1248.124773603302
 31
0.0
  0
LINE
  5
299
330
1E
100
AcDbEntity
  8
_0-0_
100
AcDbLine
 10
1660.699287021784
 20
1251.953191755302
 30
0.0
 11
1467.387408149873
 21
1251.953191755302
 31
0.0
  0
LINE
  5
29A
330
1E
100
AcDbEntity
  8
_0-0_
100
AcDbLine
 10
1660.699287021784
 20
1253.624160876748
 30
0.0
 11
1660.699287021784
 21
997.6253863298561
 31
0.0
  0
LINE
  5
29B
330
1E
100
AcDbEntity
  8
_0-0_
100
AcDbLine
 10
1717.199287021784
 20
1255.624773603302
 30
0.0
 11
1660.699287021784
 21
1253.651750127018
 31
0.0
  0
LINE
  5
29C
330
1E
100
AcDbEntity
  8
_0-0_
100
AcDbLine
 10
1717.199287021784
 20
995.6247736033022
 30
0.0
 11
1717.199287021784
 21
1255.624773603302
 31
0.0
  0
LINE
  5
29D
330
1E
100
AcDbEntity
  8
_0-0_
100
AcDbLine
 10
1660.699287021784
 20
997.597797079586
 30
0.0
 11
1660.699287021784
 21
1253.651750127018
 31
0.0
  0
LINE
  5
29E
330
1E
100
AcDbEntity
  8
_0-0_
100
AcDbLine
 10
1670.699287021784
 20
1172.775565908402
 30
0.0
 11
1660.699287021784
 21
1173.124773603302
 31
0.0
  0
LINE
  5
29F
330
1E
100
AcDbEntity
  8
_0-0_
100
AcDbLine
 10
1670.699287021784
 20
1078.473981298202
 30
0.0
 11
1670.699287021784
 21
1172.775565908402
 31
0.0
  0
LINE
  5
2A0
330
1E
100
AcDbEntity
  8
_0-0_
100
AcDbLine
 10
1670.699287021784
 20
1078.473981298202
 30
0.0
 11
1660.699287021784
 21
1078.124773603302
 31
0.0
  0
LINE
  5
2A1
330
1E
100
AcDbEntity
  8
_0-0_
100
AcDbLine
 10
1717.199287021784
 20
1253.842728220719
 30
0.0
 11
1660.699287021784
 21
1251.884200421719
 31
0.0
  0
LINE
  5
2A2
330
1E
100
AcDbEntity
  8
_0-0_
100
AcDbLine
 10
1717.199287021784
 20
995.6247736033022
 30
0.0
 11
1660.699287021784
 21
997.597797079586
 31
0.0
  0
LINE
  5
2A3
330
1E
100
AcDbEntity
  8
_0-0_
100
AcDbLine
 10
1717.199287021784
 20
997.4068189858847
 30
0.0
 11
1660.699287021784
 21
999.3653467848846
 31
0.0
  0
LINE
  5
2A4
330
1E
100
AcDbEntity
  8
_0-0_
100
AcDbLine
 10
1685.077297122326
 20
1013.821530177582
 30
0.0
 11
1660.699287021784
 21
1014.086211047582
 31
0.0
  0
LINE
  5
2A5
330
1E
100
AcDbEntity
  8
_0-0_
100
AcDbLine
 10
1685.077297122326
 20
1237.428017029022
 30
0.0
 11
1660.699287021784
 21
1237.163336159022
 31
0.0
  0
LINE
  5
2A6
330
1E
100
AcDbEntity
  8
_0-0_
100
AcDbLine
 10
1688.299287021683
 20
1002.514568802187
 30
0.0
 11
1685.077297122326
 21
1013.821530177582
 31
0.0
  0
LINE
  5
2A7
330
1E
100
AcDbEntity
  8
_0-0_
100
AcDbLine
 10
1688.299287021683
 20
998.4086146211289
 30
0.0
 11
1688.299287021683
 21
1002.514568802187
 31
0.0
  0
LINE
  5
2A8
330
1E
100
AcDbEntity
  8
_0-0_
100
AcDbLine
 10
1688.299287021684
 20
1248.734978404417
 30
0.0
 11
1685.077297122326
 21
1237.428017029022
 31
0.0
  0
LINE
  5
2A9
330
1E
100
AcDbEntity
  8
_0-0_
100
AcDbLine
 10
1688.299287021684
 20
1252.840932585475
 30
0.0
 11
1688.299287021684
 21
1248.734978404417
 31
0.0
  0
LINE
  5
2AA
330
1E
100
AcDbEntity
  8
_0-0_
100
AcDbLine
 10
1375.699287021763
 20
1253.624160876748
 30
0.0
 11
1660.699287021784
 21
1253.624160876748
 31
0.0
  0
LINE
  5
2AB
330
1E
100
AcDbEntity
  8
_0-0_
100
AcDbLine
 10
1375.699287021632
 20
997.5977970791699
 30
0.0
 11
1375.699287021632
 21
1253.651750127434
 31
0.0
  0
LINE
  5
2AC
330
1E
100
AcDbEntity
  8
_0-0_
100
AcDbLine
 10
1729.199287021783
 20
1030.608605979887
 30
0.0
 11
1729.199287021784
 21
999.6086059798875
 31
0.0
  0
ARC
  5
2AD
330
1E
100
AcDbEntity
  8
_0-0_
100
AcDbCircle
 10
1743.199287021784
 20
1004.608605979887
 30
0.0
 40
5.0
100
AcDbArc
 50
270.0
 51
0.0
  0
ARC
  5
2AE
330
1E
100
AcDbEntity
  8
_0-0_
100
AcDbCircle
 10
1743.199287021784
 20
1025.608605979887
 30
0.0
 40
5.0
100
AcDbArc
 50
0.0
 51
90.0
  0
LINE
  5
2AF
330
1E
100
AcDbEntity
  8
_0-0_
100
AcDbLine
 10
1748.199287021784
 20
1025.608605979887
 30
0.0
 11
1748.199287021784
 21
1004.608605979887
 31
0.0
  0
LINE
  5
2B0
330
1E
100
AcDbEntity
  8
_0-0_
100
AcDbLine
 10
1743.199287021784
 20
999.6086059798875
 30
0.0
 11
1729.199287021784
 21
999.6086059798875
 31
0.0
  0
LINE
  5
2B1
330
1E
100
AcDbEntity
  8
_0-0_
100
AcDbLine
 10
1743.199287021784
 20
1030.608605979887
 30
0.0
 11
1729.199287021784
 21
1030.608605979887
 31
0.0
  0
LINE
  5
2B2
330
1E
100
AcDbEntity
  8
_0-0_
100
AcDbLine
 10
1729.199287021783
 20
1030.608605979887
 30
0.0
 11
1717.199287021784
 21
1031.027655213788
 31
0.0
  0
LINE
  5
2B3
330
1E
100
AcDbEntity
  8
_0-0_
100
AcDbLine
 10
1729.199287021783
 20
1220.640941226716
 30
0.0
 11
1729.199287021784
 21
1251.640941226717
 31
0.0
  0
ARC
  5
2B4
330
1E
100
AcDbEntity
  8
_0-0_
100
AcDbCircle
 10
1743.199287021784
 20
1246.640941226716
 30
0.0
 40
5.0
100
AcDbArc
 50
0.0
 51
90.0
  0
ARC
  5
2B5
330
1E
100
AcDbEntity
  8
_0-0_
100
AcDbCircle
 10
1743.199287021784
 20
1225.640941226717
 30
0.0
 40
5.0
100
AcDbArc
 50
270.0
 51
0.0
  0
LINE
  5
2B6
330
1E
100
AcDbEntity
  8
_0-0_
100
AcDbLine
 10
1748.199287021784
 20
1225.640941226717
 30
0.0
 11
1748.199287021784
 21
1246.640941226716
 31
0.0
  0
LINE
  5
2B7
330
1E
100
AcDbEntity
  8
_0-0_
100
AcDbLine
 10
1743.199287021784
 20
1251.640941226717
 30
0.0
 11
1729.199287021784
 21
1251.640941226717
 31
0.0
  0
LINE
  5
2B8
330
1E
100
AcDbEntity
  8
_0-0_
100
AcDbLine
 10
1743.199287021784
 20
1220.640941226716
 30
0.0
 11
1729.199287021784
 21
1220.640941226716
 31
0.0
  0
LINE
  5
2B9
330
1E
100
AcDbEntity
  8
_0-0_
100
AcDbLine
 10
1729.199287021784
 20
1251.640941226717
 30
0.0
 11
1717.199287021784
 21
1252.059990460617
 31
0.0
  0
LINE
  5
2BA
330
1E
100
AcDbEntity
  8
_0-0_
100
AcDbLine
 10
1729.199287021783
 20
1220.640941226716
 30
0.0
 11
1717.199287021784
 21
1220.221891992815
 31
0.0
  0
LINE
  5
2BB
330
1E
100
AcDbEntity
  8
_0-0_
100
AcDbLine
 10
1729.199287021784
 20
999.6086059798875
 30
0.0
 11
1717.199287021784
 21
999.1895567459863
 31
0.0
  0
LINE
  5
2BC
330
1E
100
AcDbEntity
  8
_0-0_
100
AcDbLine
 10
1717.199287021784
 20
1255.624773603302
 30
0.0
 11
1717.199287021784
 21
995.6247736033022
 31
0.0
  0
LINE
  5
2BD
330
1E
100
AcDbEntity
  8
_0-0_
100
AcDbLine
 10
1299.699287021681
 20
1016.959392849973
 30
0.0
 11
1299.699287021681
 21
1234.29015435663
 31
0.0
  0
ARC
  5
2BE
330
1E
100
AcDbEntity
  8
_0-0_
100
AcDbCircle
 10
1242.950953342644
 20
1125.624773603302
 30
0.0
 40
121.009745321538
100
AcDbArc
 50
300.6821963734815
 51
59.31780362651865
  0
LINE
  5
2BF
330
1E
100
AcDbEntity
  8
_0-0_
100
AcDbLine
 10
1375.699287021763
 20
1252.272021511461
 30
0.0
 11
1374.699287021632
 21
1252.25456644653
 31
0.0
  0
LINE
  5
2C0
330
1E
100
AcDbEntity
  8
_0-0_
100
AcDbLine
 10
1375.699287021763
 20
998.9775256951434
 30
0.0
 11
1374.699287021632
 21
998.9949807600735
 31
0.0
  0
LINE
  5
2C1
330
1E
100
AcDbEntity
  8
_0-0_
100
AcDbLine
 10
1374.699287021632
 20
997.5977970793982
 30
0.0
 11
1374.699287021632
 21
1253.651750127206
 31
0.0
  0
LINE
  5
2C2
330
1E
100
AcDbEntity
  8
_0-0_
100
AcDbLine
 10
1312.420091048059
 20
999.7726345261229
 30
0.0
 11
1374.699287021632
 21
997.5977970793982
 31
0.0
  0
ARC
  5
2C3
330
1E
100
AcDbEntity
  8
_0-0_
100
AcDbCircle
 10
1312.699287021679
 20
1007.767761142275
 30
0.0
 40
8.0
100
AcDbArc
 50
180.0
 51
267.9999999999999
  0
LINE
  5
2C4
330
1E
100
AcDbEntity
  8
_0-0_
100
AcDbLine
 10
1304.699287021679
 20
1243.481786064329
 30
0.0
 11
1304.699287021679
 21
1007.767761142275
 31
0.0
  0
LINE
  5
2C5
330
1E
100
AcDbEntity
  8
_0-0_
100
AcDbLine
 10
1312.420091048059
 20
1251.476912680481
 30
0.0
 11
1374.699287021632
 21
1253.651750127206
 31
0.0
  0
ARC
  5
2C6
330
1E
100
AcDbEntity
  8
_0-0_
100
AcDbCircle
 10
1312.699287021679
 20
1243.481786064329
 30
0.0
 40
8.0
100
AcDbArc
 50
92.00000000000008
 51
180.0
  0
LINE
  5
2C7
330
1E
100
AcDbEntity
  8
_0-0_
100
AcDbLine
 10
1140.199269846609
 20
1226.120658839329
 30
0.0
 11
1134.311554229277
 21
1225.966483579951
 31
0.0
  0
ARC
  5
2C8
330
1E
100
AcDbEntity
  8
_0-0_
100
AcDbCircle
 10
1134.547146764049
 20
1216.969567655172
 30
0.0
 40
9.0
100
AcDbArc
 50
91.50000000000055
 51
176.9803698557197
  0
ARC
  5
2C9
330
1E
100
AcDbEntity
  8
_0-0_
100
AcDbCircle
 10
1122.218672610133
 20
1134.003586466569
 30
0.0
 40
4.0
100
AcDbArc
 50
92.00000000000008
 51
179.7267373197256
  0
ARC
  5
2CA
330
1E
100
AcDbEntity
  8
_0-0_
100
AcDbCircle
 10
2828.199269846608
 20
1125.867134372654
 30
0.0
 40
1710.0
100
AcDbArc
 50
179.7267373197284
 51
180.0081206135964
  0
ARC
  5
2CB
330
1E
100
AcDbEntity
  8
_0-0_
100
AcDbCircle
 10
2828.199269846608
 20
1125.382412834094
 30
0.0
 40
1710.0
100
AcDbArc
 50
179.9918793864036
 51
180.2732626802716
  0
ARC
  5
2CC
330
1E
100
AcDbEntity
  8
_0-0_
100
AcDbCircle
 10
1122.218672610133
 20
1117.24596074018
 30
0.0
 40
4.0
100
AcDbArc
 50
180.2732626802744
 51
267.9999999999999
  0
ARC
  5
2CD
330
1E
100
AcDbEntity
  8
_0-0_
100
AcDbCircle
 10
1134.547146764049
 20
1034.279979551577
 30
0.0
 40
9.0
100
AcDbArc
 50
183.0196301442803
 51
268.4999999999994
  0
LINE
  5
2CE
330
1E
100
AcDbEntity
  8
_0-0_
100
AcDbLine
 10
1140.199269846609
 20
1025.128888367418
 30
0.0
 11
1134.311554229277
 21
1025.283063626795
 31
0.0
  0
LINE
  5
2CF
330
1E
100
AcDbEntity
  8
_0-0_
100
AcDbLine
 10
1140.198379174032
 20
1025.159294276919
 30
0.0
 11
1299.723156178917
 21
1022.37477893664
 31
0.0
  0
LINE
  5
2D0
330
1E
100
AcDbEntity
  8
_0-0_
100
AcDbLine
 10
1140.198379174032
 20
1025.159294276919
 30
0.0
 11
1140.198379174032
 21
1226.09025292983
 31
0.0
  0
ARC
  5
2D1
330
1E
100
AcDbEntity
  8
_0-0_
100
AcDbCircle
 10
2823.092920005077
 20
1125.352412834098
 30
0.0
 40
1700.0
100
AcDbArc
 50
179.9908361143965
 51
183.0870019621573
  0
ARC
  5
2D2
330
1E
100
AcDbEntity
  8
_0-0_
100
AcDbCircle
 10
2823.092920005077
 20
1125.897134372651
 30
0.0
 40
1700.0
100
AcDbArc
 50
176.9129980378426
 51
180.0091950822207
  0
LINE
  5
2D3
330
1E
100
AcDbEntity
  8
_0-0_
100
AcDbLine
 10
1122.079074623323
 20
1138.001149774644
 30
0.0
 11
1123.136349634556
 21
1138.048630334067
 31
0.0
  0
LINE
  5
2D4
330
1E
100
AcDbEntity
  8
_0-0_
100
AcDbLine
 10
1122.079074623323
 20
1113.248397432104
 30
0.0
 11
1123.136349634556
 21
1113.200916872681
 31
0.0
  0
LINE
  5
2D5
330
1E
100
AcDbEntity
  8
_0-0_
100
AcDbLine
 10
1140.198379174032
 20
1226.09025292983
 30
0.0
 11
1299.723156178753
 21
1228.874768270105
 31
0.0
  0
LINE
  5
2D6
330
1E
100
AcDbEntity
  8
_0-0_
100
AcDbLine
 10
1299.723156178922
 20
1016.760469021385
 30
0.0
 11
1304.764729392533
 21
1016.628450780629
 31
0.0
  0
LINE
  5
2D7
330
1E
100
AcDbEntity
  8
_0-0_
100
AcDbLine
 10
1299.699287021765
 20
1234.488453149342
 30
0.0
 11
1304.764729392533
 21
1234.621096425976
 31
0.0
  0
LINE
  5
2D8
330
1E
100
AcDbEntity
  8
_0-0_
100
AcDbLine
 10
1299.699287021592
 20
1016.761094057267
 30
0.0
 11
1299.699287021765
 21
1234.488453149342
 31
0.0
  0
LINE
  5
313
330
1E
100
AcDbEntity
  8
_0-0_
100
AcDbLine
 10
1660.699287021784
 20
1215.624773603302
 30
0.0
 11
1470.323995126554
 21
1215.624773603302
 31
0.0
  0
LINE
  5
315
330
1E
100
AcDbEntity
  8
_0-0_
100
AcDbLine
 10
1660.699287021784
 20
1213.896195513302
 30
0.0
 11
1475.699287021763
 21
1213.896195513302
 31
0.0
  0
CIRCLE
  5
319
330
1E
100
AcDbEntity
  8
_0-0_
100
AcDbCircle
 10
1497.723156178821
 20
1230.624773603302
 30
0.0
 40
10.0
  0
CIRCLE
  5
31A
330
1E
100
AcDbEntity
  8
_0-0_
100
AcDbCircle
 10
1503.723156178821
 20
1230.624773603302
 30
0.0
 40
3.999999999999985
  0
LINE
  5
31B
330
1E
100
AcDbEntity
  8
_0-0_
100
AcDbLine
 10
1503.723156178821
 20
1234.624773603302
 30
0.0
 11
1497.723156178821
 21
1234.624773603302
 31
0.0
  0
LINE
  5
31C
330
1E
100
AcDbEntity
  8
_0-0_
100
AcDbLine
 10
1503.723156178821
 20
1226.624773603302
 30
0.0
 11
1497.723156178821
 21
1226.624773603302
 31
0.0
  0
ARC
  5
31D
330
1E
100
AcDbEntity
  8
_0-0_
100
AcDbCircle
 10
1497.723156178821
 20
1230.624773603302
 30
0.0
 40
3.999999999999985
100
AcDbArc
 50
90.0
 51
270.0
  0
ARC
  5
31E
330
1E
100
AcDbEntity
  8
_0-0_
100
AcDbCircle
 10
1497.723156178821
 20
1230.624773603302
 30
0.0
 40
6.299999999999954
100
AcDbArc
 50
39.41409835615344
 51
320.5859016438445
  0
ARC
  5
31F
330
1E
100
AcDbEntity
  8
_0-0_
100
AcDbCircle
 10
1658.723156178998
 20
1181.06955037217
 30
0.0
 40
2.0
100
AcDbArc
 50
0.0
 51
88.39592879725687
  0
ARC
  5
320
330
1E
100
AcDbEntity
  8
_0-0_
100
AcDbCircle
 10
1533.223156178995
 20
1185.16556148106
 30
0.0
 40
1.5
100
AcDbArc
 50
91.49999999999991
 51
180.0000000000033
  0
LINE
  5
322
330
1E
100
AcDbEntity
  8
_0-0_
100
AcDbLine
 10
1533.181675821426
 20
1186.585952927466
 30
0.0
 11
1658.779141512681
 21
1183.068766629209
 31
0.0
  0
ARC
  5
323
330
1E
100
AcDbEntity
  8
_0-0_
100
AcDbCircle
 10
1658.723156178998
 20
1070.179996834434
 30
0.0
 40
2.0
100
AcDbArc
 50
271.6040712027432
 51
0.0000000000000381
  0
ARC
  5
324
330
1E
100
AcDbEntity
  8
_0-0_
100
AcDbCircle
 10
1533.223156178994
 20
1066.083985725544
 30
0.0
 40
1.5
100
AcDbArc
 50
179.9999999999966
 51
268.5
  0
LINE
  5
325
330
1E
100
AcDbEntity
  8
_0-0_
100
AcDbLine
 10
1533.181675821426
 20
1064.663594279138
 30
0.0
 11
1658.779141512681
 21
1068.180780577394
 31
0.0
  0
LINE
  5
326
330
1E
100
AcDbEntity
  8
_0-0_
100
AcDbLine
 10
1651.723156178998
 20
1125.624773603302
 30
0.0
 11
1651.723156178998
 21
1125.742265475746
 31
0.0
  0
LINE
  5
327
330
1E
100
AcDbEntity
  8
_0-0_
100
AcDbLine
 10
1531.723156178997
 20
1134.624773603302
 30
0.0
 11
1641.880217868845
 21
1131.7402094256
 31
0.0
  0
LINE
  5
328
330
1E
100
AcDbEntity
  8
_0-0_
100
AcDbLine
 10
1531.723156178997
 20
1138.626144773265
 30
0.0
 11
1641.984925662077
 21
1135.738838725502
 31
0.0
  0
LINE
  5
329
330
1E
100
AcDbEntity
  8
_0-0_
100
AcDbLine
 10
1647.723156178998
 20
1125.624773603302
 30
0.0
 11
1647.723156178998
 21
1125.742265475746
 31
0.0
  0
ARC
  5
32A
330
1E
100
AcDbEntity
  8
_0-0_
100
AcDbCircle
 10
1641.723156178998
 20
1125.742265475746
 30
0.0
 40
10.0
100
AcDbArc
 50
0.0
 51
88.49999999999722
  0
ARC
  5
32B
330
1E
100
AcDbEntity
  8
_0-0_
100
AcDbCircle
 10
1641.723156178998
 20
1125.742265475746
 30
0.0
 40
6.0
100
AcDbArc
 50
0.0
 51
88.49999999999722
  0
ARC
  5
32C
330
1E
100
AcDbEntity
  8
_0-0_
100
AcDbCircle
 10
1641.723156178998
 20
1125.507281730858
 30
0.0
 40
6.0
100
AcDbArc
 50
271.5000000000027
 51
0.0
  0
ARC
  5
32D
330
1E
100
AcDbEntity
  8
_0-0_
100
AcDbCircle
 10
1641.723156178998
 20
1125.507281730858
 30
0.0
 40
10.0
100
AcDbArc
 50
271.5000000000027
 51
0.0
  0
LINE
  5
32E
330
1E
100
AcDbEntity
  8
_0-0_
100
AcDbLine
 10
1531.723156178997
 20
1112.623402433333
 30
0.0
 11
1641.984925662077
 21
1115.510708481102
 31
0.0
  0
LINE
  5
32F
330
1E
100
AcDbEntity
  8
_0-0_
100
AcDbLine
 10
1531.723156178997
 20
1116.624773603297
 30
0.0
 11
1641.880217868845
 21
1119.509337781005
 31
0.0
  0
ARC
  5
330
330
1E
100
AcDbEntity
  8
_0-0_
100
AcDbCircle
 10
1532.723156178997
 20
1113.649931147394
 30
0.0
 40
1.0
100
AcDbArc
 50
179.9999999999979
 51
271.5000000000027
  0
ARC
  5
331
330
1E
100
AcDbEntity
  8
_0-0_
100
AcDbCircle
 10
1532.723156178997
 20
1115.650616732375
 30
0.0
 40
1.0
100
AcDbArc
 50
91.50000000000261
 51
179.9999999999978
  0
ARC
  5
332
330
1E
100
AcDbEntity
  8
_0-0_
100
AcDbCircle
 10
1532.723156178997
 20
1135.598930474223
 30
0.0
 40
1.0
100
AcDbArc
 50
180.0
 51
268.5
  0
ARC
  5
333
330
1E
100
AcDbEntity
  8
_0-0_
100
AcDbCircle
 10
1532.723156178997
 20
1137.599616059205
 30
0.0
 40
1.0
100
AcDbArc
 50
88.50000000000013
 51
180.0000000000001
  0
LINE
  5
334
330
1E
100
AcDbEntity
  8
_0-0_
100
AcDbLine
 10
1557.723156178997
 20
1122.663470354166
 30
0.0
 11
1557.723156178997
 21
1128.586076852438
 31
0.0
  0
ARC
  5
335
330
1E
100
AcDbEntity
  8
_0-0_
100
AcDbCircle
 10
1552.223156178997
 20
1122.663470354166
 30
0.0
 40
5.5
100
AcDbArc
 50
271.5000000000028
 51
0.0000000000000254
  0
ARC
  5
336
330
1E
100
AcDbEntity
  8
_0-0_
100
AcDbCircle
 10
1552.223156178997
 20
1128.586076852438
 30
0.0
 40
5.5
100
AcDbArc
 50
359.9999999999991
 51
88.49999999999614
  0
ARC
  5
337
330
1E
100
AcDbEntity
  8
_0-0_
100
AcDbCircle
 10
1724.627258423235
 20
1125.624773603302
 30
0.0
 40
203.0
100
AcDbArc
 50
188.851008749007
 51
195.193804761494
  0
ARC
  5
338
330
1E
100
AcDbEntity
  8
_0-0_
100
AcDbCircle
 10
1724.627258423235
 20
1125.624773603302
 30
0.0
 40
203.0
100
AcDbArc
 50
164.806195238506
 51
171.148991250993
  0
ARC
  5
339
330
1E
100
AcDbEntity
  8
_0-0_
100
AcDbCircle
 10
1523.056533050314
 20
1094.236198091911
 30
0.0
 40
1.0
100
AcDbArc
 50
8.851008749007219
 51
89.00000000000003
  0
ARC
  5
33A
330
1E
100
AcDbEntity
  8
_0-0_
100
AcDbCircle
 10
1523.056533050314
 20
1157.013349114693
 30
0.0
 40
1.0
100
AcDbArc
 50
270.9999999999999
 51
351.1489912509933
  0
ARC
  5
33B
330
1E
100
AcDbEntity
  8
_0-0_
100
AcDbCircle
 10
1784.751723290603
 20
1125.624773603302
 30
0.0
 40
260.6556256738741
100
AcDbArc
 50
173.2940658288952
 51
186.7059341711049
  0
LINE
  5
33C
330
1E
100
AcDbEntity
  8
_0-0_
100
AcDbLine
 10
1477.252631557719
 20
1096.035860494474
 30
0.0
 11
1525.879357303
 21
1095.187077839343
 31
0.0
  0
LINE
  5
33D
330
1E
100
AcDbEntity
  8
_0-0_
100
AcDbLine
 10
1477.252631557719
 20
1155.21368671213
 30
0.0
 11
1525.879357303
 21
1156.062469367261
 31
0.0
  0
LINE
  5
33E
330
1E
100
AcDbEntity
  8
_0-0_
100
AcDbLine
 10
1529.723156178997
 20
1063.624773603302
 30
0.0
 11
1531.723156178997
 21
1063.624773603302
 31
0.0
  0
ARC
  5
33F
330
1E
100
AcDbEntity
  8
_0-0_
100
AcDbCircle
 10
1529.723156178997
 20
1064.624773603302
 30
0.0
 40
1.0
100
AcDbArc
 50
180.0
 51
270.0
  0
LINE
  5
340
330
1E
100
AcDbEntity
  8
_0-0_
100
AcDbLine
 10
1528.723156178997
 20
1186.624773603302
 30
0.0
 11
1528.723156178997
 21
1064.624773603302
 31
0.0
  0
ARC
  5
341
330
1E
100
AcDbEntity
  8
_0-0_
100
AcDbCircle
 10
1529.723156178997
 20
1186.624773603302
 30
0.0
 40
1.0
100
AcDbArc
 50
90.0
 51
180.0
  0
LINE
  5
342
330
1E
100
AcDbEntity
  8
_0-0_
100
AcDbLine
 10
1531.723156178997
 20
1063.624773603302
 30
0.0
 11
1531.723156178997
 21
1187.624773603302
 31
0.0
  0
LINE
  5
343
330
1E
100
AcDbEntity
  8
_0-0_
100
AcDbLine
 10
1529.723156178997
 20
1187.624773603302
 30
0.0
 11
1531.723156178997
 21
1187.624773603302
 31
0.0
  0
LINE
  5
344
330
1E
100
AcDbEntity
  8
_0-0_
100
AcDbLine
 10
1506.050783313084
 20
1185.624773603302
 30
0.0
 11
1505.818024585421
 21
1189.102478742023
 31
0.0
  0
LINE
  5
345
330
1E
100
AcDbEntity
  8
_0-0_
100
AcDbLine
 10
1505.818024585421
 20
1189.102478742023
 30
0.0
 11
1505.126820658587
 21
1192.474515569908
 31
0.0
  0
LINE
  5
346
330
1E
100
AcDbEntity
  8
_0-0_
100
AcDbLine
 10
1505.126820658587
 20
1192.474515569908
 30
0.0
 11
1503.998173414136
 21
1195.638426454274
 31
0.0
  0
LINE
  5
347
330
1E
100
AcDbEntity
  8
_0-0_
100
AcDbLine
 10
1503.998173414136
 20
1195.638426454274
 30
0.0
 11
1502.466376227466
 21
1198.498077563916
 31
0.0
  0
LINE
  5
348
330
1E
100
AcDbEntity
  8
_0-0_
100
AcDbLine
 10
1502.466376227466
 20
1198.498077563916
 30
0.0
 11
1500.577971980967
 21
1200.966579846921
 31
0.0
  0
LINE
  5
349
330
1E
100
AcDbEntity
  8
_0-0_
100
AcDbLine
 10
1500.577971980967
 20
1200.966579846921
 30
0.0
 11
1498.390338882091
 21
1202.968929110542
 31
0.0
  0
LINE
  5
34A
330
1E
100
AcDbEntity
  8
_0-0_
100
AcDbLine
 10
1498.390338882091
 20
1202.968929110542
 30
0.0
 11
1495.969947055551
 21
1204.444284985642
 31
0.0
  0
LINE
  5
34B
330
1E
100
AcDbEntity
  8
_0-0_
100
AcDbLine
 10
1495.969947055551
 20
1204.444284985642
 30
0.0
 11
1493.390338882219
 21
1205.347819530521
 31
0.0
  0
LINE
  5
34C
330
1E
100
AcDbEntity
  8
_0-0_
100
AcDbLine
 10
1493.390338882219
 20
1205.347819530521
 30
0.0
 11
1490.729894451098
 21
1205.652079305245
 31
0.0
  0
LINE
  5
34D
330
1E
100
AcDbEntity
  8
_0-0_
100
AcDbLine
 10
1490.729894451098
 20
1205.652079305245
 30
0.0
 11
1488.069450019976
 21
1205.347819530521
 31
0.0
  0
LINE
  5
34E
330
1E
100
AcDbEntity
  8
_0-0_
100
AcDbLine
 10
1488.069450019976
 20
1205.347819530521
 30
0.0
 11
1485.489841846644
 21
1204.444284985642
 31
0.0
  0
LINE
  5
34F
330
1E
100
AcDbEntity
  8
_0-0_
100
AcDbLine
 10
1485.489841846644
 20
1204.444284985642
 30
0.0
 11
1483.069450020104
 21
1202.968929110542
 31
0.0
  0
LINE
  5
350
330
1E
100
AcDbEntity
  8
_0-0_
100
AcDbLine
 10
1483.069450020104
 20
1202.968929110542
 30
0.0
 11
1480.881816921228
 21
1200.966579846921
 31
0.0
  0
LINE
  5
351
330
1E
100
AcDbEntity
  8
_0-0_
100
AcDbLine
 10
1480.881816921228
 20
1200.966579846921
 30
0.0
 11
1478.993412674729
 21
1198.498077563916
 31
0.0
  0
LINE
  5
352
330
1E
100
AcDbEntity
  8
_0-0_
100
AcDbLine
 10
1478.993412674729
 20
1198.498077563916
 30
0.0
 11
1477.461615488059
 21
1195.638426454274
 31
0.0
  0
LINE
  5
353
330
1E
100
AcDbEntity
  8
_0-0_
100
AcDbLine
 10
1477.461615488059
 20
1195.638426454274
 30
0.0
 11
1476.332968243608
 21
1192.474515569908
 31
0.0
  0
LINE
  5
354
330
1E
100
AcDbEntity
  8
_0-0_
100
AcDbLine
 10
1476.332968243608
 20
1192.474515569908
 30
0.0
 11
1475.641764316775
 21
1189.102478742023
 31
0.0
  0
LINE
  5
355
330
1E
100
AcDbEntity
  8
_0-0_
100
AcDbLine
 10
1475.641764316775
 20
1189.102478742023
 30
0.0
 11
1475.409005589111
 21
1185.624773603302
 31
0.0
  0
LINE
  5
356
330
1E
100
AcDbEntity
  8
_0-0_
100
AcDbLine
 10
1475.409005589111
 20
1185.624773603302
 30
0.0
 11
1475.641764316775
 21
1182.147068464581
 31
0.0
  0
LINE
  5
357
330
1E
100
AcDbEntity
  8
_0-0_
100
AcDbLine
 10
1475.641764316775
 20
1182.147068464581
 30
0.0
 11
1476.332968243608
 21
1178.775031636696
 31
0.0
  0
LINE
  5
358
330
1E
100
AcDbEntity
  8
_0-0_
100
AcDbLine
 10
1476.332968243608
 20
1178.775031636696
 30
0.0
 11
1477.461615488059
 21
1175.61112075233
 31
0.0
  0
LINE
  5
359
330
1E
100
AcDbEntity
  8
_0-0_
100
AcDbLine
 10
1477.461615488059
 20
1175.61112075233
 30
0.0
 11
1478.993412674729
 21
1172.751469642688
 31
0.0
  0
LINE
  5
35A
330
1E
100
AcDbEntity
  8
_0-0_
100
AcDbLine
 10
1478.993412674729
 20
1172.751469642688
 30
0.0
 11
1480.881816921228
 21
1170.282967359683
 31
0.0
  0
LINE
  5
35B
330
1E
100
AcDbEntity
  8
_0-0_
100
AcDbLine
 10
1480.881816921228
 20
1170.282967359683
 30
0.0
 11
1483.069450020104
 21
1168.280618096062
 31
0.0
  0
LINE
  5
35C
330
1E
100
AcDbEntity
  8
_0-0_
100
AcDbLine
 10
1483.069450020104
 20
1168.280618096062
 30
0.0
 11
1485.489841846644
 21
1166.805262220962
 31
0.0
  0
LINE
  5
35D
330
1E
100
AcDbEntity
  8
_0-0_
100
AcDbLine
 10
1485.489841846644
 20
1166.805262220962
 30
0.0
 11
1488.069450019976
 21
1165.901727676083
 31
0.0
  0
LINE
  5
35E
330
1E
100
AcDbEntity
  8
_0-0_
100
AcDbLine
 10
1488.069450019976
 20
1165.901727676083
 30
0.0
 11
1490.729894451098
 21
1165.597467901359
 31
0.0
  0
LINE
  5
35F
330
1E
100
AcDbEntity
  8
_0-0_
100
AcDbLine
 10
1490.729894451098
 20
1165.597467901359
 30
0.0
 11
1493.390338882219
 21
1165.901727676083
 31
0.0
  0
LINE
  5
360
330
1E
100
AcDbEntity
  8
_0-0_
100
AcDbLine
 10
1493.390338882219
 20
1165.901727676083
 30
0.0
 11
1495.969947055551
 21
1166.805262220962
 31
0.0
  0
LINE
  5
361
330
1E
100
AcDbEntity
  8
_0-0_
100
AcDbLine
 10
1495.969947055551
 20
1166.805262220962
 30
0.0
 11
1498.390338882091
 21
1168.280618096062
 31
0.0
  0
LINE
  5
362
330
1E
100
AcDbEntity
  8
_0-0_
100
AcDbLine
 10
1498.390338882091
 20
1168.280618096062
 30
0.0
 11
1500.577971980967
 21
1170.282967359683
 31
0.0
  0
LINE
  5
363
330
1E
100
AcDbEntity
  8
_0-0_
100
AcDbLine
 10
1500.577971980967
 20
1170.282967359683
 30
0.0
 11
1502.466376227466
 21
1172.751469642688
 31
0.0
  0
LINE
  5
364
330
1E
100
AcDbEntity
  8
_0-0_
100
AcDbLine
 10
1502.466376227466
 20
1172.751469642688
 30
0.0
 11
1503.998173414136
 21
1175.61112075233
 31
0.0
  0
LINE
  5
365
330
1E
100
AcDbEntity
  8
_0-0_
100
AcDbLine
 10
1503.998173414136
 20
1175.61112075233
 30
0.0
 11
1505.126820658587
 21
1178.775031636696
 31
0.0
  0
LINE
  5
366
330
1E
100
AcDbEntity
  8
_0-0_
100
AcDbLine
 10
1505.126820658587
 20
1178.775031636696
 30
0.0
 11
1505.818024585421
 21
1182.147068464581
 31
0.0
  0
LINE
  5
367
330
1E
100
AcDbEntity
  8
_0-0_
100
AcDbLine
 10
1505.818024585421
 20
1182.147068464581
 30
0.0
 11
1506.050783313084
 21
1185.624773603302
 31
0.0
  0
LINE
  5
368
330
1E
100
AcDbEntity
  8
_0-0_
100
AcDbLine
 10
1475.699287021763
 20
1185.624773603302
 30
0.0
 11
1475.927635722206
 21
1182.212959761039
 31
0.0
  0
LINE
  5
369
330
1E
100
AcDbEntity
  8
_0-0_
100
AcDbLine
 10
1475.927635722206
 20
1182.212959761039
 30
0.0
 11
1476.605743563822
 21
1178.904812155912
 31
0.0
  0
LINE
  5
36A
330
1E
100
AcDbEntity
  8
_0-0_
100
AcDbLine
 10
1476.605743563822
 20
1178.904812155912
 30
0.0
 11
1477.713006582982
 21
1175.8008471789
 31
0.0
  0
LINE
  5
36B
330
1E
100
AcDbEntity
  8
_0-0_
100
AcDbLine
 10
1477.713006582982
 20
1175.8008471789
 30
0.0
 11
1479.215781153153
 21
1172.995377235146
 31
0.0
  0
LINE
  5
36C
330
1E
100
AcDbEntity
  8
_0-0_
100
AcDbLine
 10
1479.215781153153
 20
1172.995377235146
 30
0.0
 11
1481.068406229458
 21
1170.573645109256
 31
0.0
  0
LINE
  5
36D
330
1E
100
AcDbEntity
  8
_0-0_
100
AcDbLine
 10
1481.068406229458
 20
1170.573645109256
 30
0.0
 11
1483.21459073643
 21
1168.609233906419
 31
0.0
  0
LINE
  5
36E
330
1E
100
AcDbEntity
  8
_0-0_
100
AcDbLine
 10
1483.21459073643
 20
1168.609233906419
 30
0.0
 11
1485.589123943845
 21
1167.161831266994
 31
0.0
  0
LINE
  5
36F
330
1E
100
AcDbEntity
  8
_0-0_
100
AcDbLine
 10
1485.589123943845
 20
1167.161831266994
 30
0.0
 11
1488.119856861767
 21
1166.275415787757
 31
0.0
  0
LINE
  5
370
330
1E
100
AcDbEntity
  8
_0-0_
100
AcDbLine
 10
1488.119856861767
 20
1166.275415787757
 30
0.0
 11
1490.729894451098
 21
1165.976920754498
 31
0.0
  0
LINE
  5
371
330
1E
100
AcDbEntity
  8
_0-0_
100
AcDbLine
 10
1490.729894451098
 20
1165.976920754498
 30
0.0
 11
1493.339932040429
 21
1166.275415787757
 31
0.0
  0
LINE
  5
372
330
1E
100
AcDbEntity
  8
_0-0_
100
AcDbLine
 10
1493.339932040429
 20
1166.275415787757
 30
0.0
 11
1495.870664958351
 21
1167.161831266994
 31
0.0
  0
LINE
  5
373
330
1E
100
AcDbEntity
  8
_0-0_
100
AcDbLine
 10
1495.870664958351
 20
1167.161831266994
 30
0.0
 11
1498.245198165765
 21
1168.609233906419
 31
0.0
  0
LINE
  5
374
330
1E
100
AcDbEntity
  8
_0-0_
100
AcDbLine
 10
1498.245198165765
 20
1168.609233906419
 30
0.0
 11
1500.391382672737
 21
1170.573645109256
 31
0.0
  0
LINE
  5
375
330
1E
100
AcDbEntity
  8
_0-0_
100
AcDbLine
 10
1500.391382672737
 20
1170.573645109256
 30
0.0
 11
1502.244007749042
 21
1172.995377235146
 31
0.0
  0
LINE
  5
376
330
1E
100
AcDbEntity
  8
_0-0_
100
AcDbLine
 10
1502.244007749042
 20
1172.995377235146
 30
0.0
 11
1503.746782319213
 21
1175.8008471789
 31
0.0
  0
LINE
  5
377
330
1E
100
AcDbEntity
  8
_0-0_
100
AcDbLine
 10
1503.746782319213
 20
1175.8008471789
 30
0.0
 11
1504.854045338373
 21
1178.904812155912
 31
0.0
  0
LINE
  5
378
330
1E
100
AcDbEntity
  8
_0-0_
100
AcDbLine
 10
1504.854045338373
 20
1178.904812155912
 30
0.0
 11
1505.532153179989
 21
1182.212959761039
 31
0.0
  0
LINE
  5
379
330
1E
100
AcDbEntity
  8
_0-0_
100
AcDbLine
 10
1505.532153179989
 20
1182.212959761039
 30
0.0
 11
1505.760501880432
 21
1185.624773603302
 31
0.0
  0
LINE
  5
37A
330
1E
100
AcDbEntity
  8
_0-0_
100
AcDbLine
 10
1505.760501880432
 20
1185.624773603302
 30
0.0
 11
1505.532153179989
 21
1189.036587445564
 31
0.0
  0
LINE
  5
37B
330
1E
100
AcDbEntity
  8
_0-0_
100
AcDbLine
 10
1505.532153179989
 20
1189.036587445564
 30
0.0
 11
1504.854045338373
 21
1192.344735050691
 31
0.0
  0
LINE
  5
37C
330
1E
100
AcDbEntity
  8
_0-0_
100
AcDbLine
 10
1504.854045338373
 20
1192.344735050691
 30
0.0
 11
1503.746782319213
 21
1195.448700027704
 31
0.0
  0
LINE
  5
37D
330
1E
100
AcDbEntity
  8
_0-0_
100
AcDbLine
 10
1503.746782319213
 20
1195.448700027704
 30
0.0
 11
1502.244007749042
 21
1198.254169971457
 31
0.0
  0
LINE
  5
37E
330
1E
100
AcDbEntity
  8
_0-0_
100
AcDbLine
 10
1502.244007749042
 20
1198.254169971457
 30
0.0
 11
1500.391382672737
 21
1200.675902097347
 31
0.0
  0
LINE
  5
37F
330
1E
100
AcDbEntity
  8
_0-0_
100
AcDbLine
 10
1500.391382672737
 20
1200.675902097347
 30
0.0
 11
1498.245198165765
 21
1202.640313300185
 31
0.0
  0
LINE
  5
380
330
1E
100
AcDbEntity
  8
_0-0_
100
AcDbLine
 10
1498.245198165765
 20
1202.640313300185
 30
0.0
 11
1495.870664958351
 21
1204.087715939611
 31
0.0
  0
LINE
  5
381
330
1E
100
AcDbEntity
  8
_0-0_
100
AcDbLine
 10
1495.870664958351
 20
1204.087715939611
 30
0.0
 11
1493.339932040429
 21
1204.974131418847
 31
0.0
  0
LINE
  5
382
330
1E
100
AcDbEntity
  8
_0-0_
100
AcDbLine
 10
1493.339932040429
 20
1204.974131418847
 30
0.0
 11
1490.729894451098
 21
1205.272626452106
 31
0.0
  0
LINE
  5
383
330
1E
100
AcDbEntity
  8
_0-0_
100
AcDbLine
 10
1490.729894451098
 20
1205.272626452106
 30
0.0
 11
1488.119856861767
 21
1204.974131418847
 31
0.0
  0
LINE
  5
384
330
1E
100
AcDbEntity
  8
_0-0_
100
AcDbLine
 10
1488.119856861767
 20
1204.974131418847
 30
0.0
 11
1485.589123943845
 21
1204.087715939611
 31
0.0
  0
LINE
  5
385
330
1E
100
AcDbEntity
  8
_0-0_
100
AcDbLine
 10
1485.589123943845
 20
1204.087715939611
 30
0.0
 11
1483.21459073643
 21
1202.640313300185
 31
0.0
  0
LINE
  5
386
330
1E
100
AcDbEntity
  8
_0-0_
100
AcDbLine
 10
1483.21459073643
 20
1202.640313300185
 30
0.0
 11
1481.068406229458
 21
1200.675902097348
 31
0.0
  0
LINE
  5
387
330
1E
100
AcDbEntity
  8
_0-0_
100
AcDbLine
 10
1481.068406229458
 20
1200.675902097348
 30
0.0
 11
1479.215781153153
 21
1198.254169971457
 31
0.0
  0
LINE
  5
388
330
1E
100
AcDbEntity
  8
_0-0_
100
AcDbLine
 10
1479.215781153153
 20
1198.254169971457
 30
0.0
 11
1477.713006582982
 21
1195.448700027704
 31
0.0
  0
LINE
  5
389
330
1E
100
AcDbEntity
  8
_0-0_
100
AcDbLine
 10
1477.713006582982
 20
1195.448700027704
 30
0.0
 11
1476.605743563822
 21
1192.344735050691
 31
0.0
  0
LINE
  5
38A
330
1E
100
AcDbEntity
  8
_0-0_
100
AcDbLine
 10
1476.605743563822
 20
1192.344735050691
 30
0.0
 11
1475.927635722206
 21
1189.036587445565
 31
0.0
  0
LINE
  5
38B
330
1E
100
AcDbEntity
  8
_0-0_
100
AcDbLine
 10
1475.927635722206
 20
1189.036587445565
 30
0.0
 11
1475.699287021763
 21
1185.624773603302
 31
0.0
  0
LINE
  5
38C
330
1E
100
AcDbEntity
  8
_0-0_
100
AcDbLine
 10
1502.979979679977
 20
1185.624773603302
 30
0.0
 11
1502.779225277368
 21
1188.581775306695
 31
0.0
  0
LINE
  5
38D
330
1E
100
AcDbEntity
  8
_0-0_
100
AcDbLine
 10
1502.779225277368
 20
1188.581775306695
 30
0.0
 11
1502.183061890477
 21
1191.448930009645
 31
0.0
  0
LINE
  5
38E
330
1E
100
AcDbEntity
  8
_0-0_
100
AcDbLine
 10
1502.183061890477
 20
1191.448930009645
 30
0.0
 11
1501.209603642142
 21
1194.139120667354
 31
0.0
  0
LINE
  5
38F
330
1E
100
AcDbEntity
  8
_0-0_
100
AcDbLine
 10
1501.209603642142
 20
1194.139120667354
 30
0.0
 11
1499.888428568644
 21
1196.57060719799
 31
0.0
  0
LINE
  5
390
330
1E
100
AcDbEntity
  8
_0-0_
100
AcDbLine
 10
1499.888428568644
 20
1196.57060719799
 30
0.0
 11
1498.259679906046
 21
1198.669510113709
 31
0.0
  0
LINE
  5
391
330
1E
100
AcDbEntity
  8
_0-0_
100
AcDbLine
 10
1498.259679906046
 20
1198.669510113709
 30
0.0
 11
1496.372846358273
 21
1200.372055311516
 31
0.0
  0
LINE
  5
392
330
1E
100
AcDbEntity
  8
_0-0_
100
AcDbLine
 10
1496.372846358273
 20
1200.372055311516
 30
0.0
 11
1494.28525840789
 21
1201.626511817103
 31
0.0
  0
LINE
  5
393
330
1E
100
AcDbEntity
  8
_0-0_
100
AcDbLine
 10
1494.28525840789
 20
1201.626511817103
 30
0.0
 11
1492.060346358401
 21
1202.394763604333
 31
0.0
  0
LINE
  5
394
330
1E
100
AcDbEntity
  8
_0-0_
100
AcDbLine
 10
1492.060346358401
 20
1202.394763604333
 30
0.0
 11
1489.765713036568
 21
1202.653467731407
 31
0.0
  0
LINE
  5
395
330
1E
100
AcDbEntity
  8
_0-0_
100
AcDbLine
 10
1489.765713036568
 20
1202.653467731407
 30
0.0
 11
1487.471079714735
 21
1202.394763604333
 31
0.0
  0
LINE
  5
396
330
1E
100
AcDbEntity
  8
_0-0_
100
AcDbLine
 10
1487.471079714735
 20
1202.394763604333
 30
0.0
 11
1485.246167665245
 21
1201.626511817103
 31
0.0
  0
LINE
  5
397
330
1E
100
AcDbEntity
  8
_0-0_
100
AcDbLine
 10
1485.246167665245
 20
1201.626511817103
 30
0.0
 11
1483.158579714864
 21
1200.372055311516
 31
0.0
  0
LINE
  5
398
330
1E
100
AcDbEntity
  8
_0-0_
100
AcDbLine
 10
1483.158579714864
 20
1200.372055311516
 30
0.0
 11
1481.27174616709
 21
1198.669510113709
 31
0.0
  0
LINE
  5
399
330
1E
100
AcDbEntity
  8
_0-0_
100
AcDbLine
 10
1481.27174616709
 20
1198.669510113709
 30
0.0
 11
1479.642997504492
 21
1196.57060719799
 31
0.0
  0
LINE
  5
39A
330
1E
100
AcDbEntity
  8
_0-0_
100
AcDbLine
 10
1479.642997504492
 20
1196.57060719799
 30
0.0
 11
1478.321822430994
 21
1194.139120667355
 31
0.0
  0
LINE
  5
39B
330
1E
100
AcDbEntity
  8
_0-0_
100
AcDbLine
 10
1478.321822430994
 20
1194.139120667355
 30
0.0
 11
1477.348364182659
 21
1191.448930009645
 31
0.0
  0
LINE
  5
39C
330
1E
100
AcDbEntity
  8
_0-0_
100
AcDbLine
 10
1477.348364182659
 20
1191.448930009645
 30
0.0
 11
1476.752200795767
 21
1188.581775306695
 31
0.0
  0
LINE
  5
39D
330
1E
100
AcDbEntity
  8
_0-0_
100
AcDbLine
 10
1476.752200795767
 20
1188.581775306695
 30
0.0
 11
1476.551446393158
 21
1185.624773603302
 31
0.0
  0
LINE
  5
39E
330
1E
100
AcDbEntity
  8
_0-0_
100
AcDbLine
 10
1476.551446393158
 20
1185.624773603302
 30
0.0
 11
1476.752200795767
 21
1182.667771899909
 31
0.0
  0
LINE
  5
39F
330
1E
100
AcDbEntity
  8
_0-0_
100
AcDbLine
 10
1476.752200795767
 20
1182.667771899909
 30
0.0
 11
1477.348364182659
 21
1179.800617196959
 31
0.0
  0
LINE
  5
3A0
330
1E
100
AcDbEntity
  8
_0-0_
100
AcDbLine
 10
1477.348364182659
 20
1179.800617196959
 30
0.0
 11
1478.321822430994
 21
1177.11042653925
 31
0.0
  0
LINE
  5
3A1
330
1E
100
AcDbEntity
  8
_0-0_
100
AcDbLine
 10
1478.321822430994
 20
1177.11042653925
 30
0.0
 11
1479.642997504492
 21
1174.678940008614
 31
0.0
  0
LINE
  5
3A2
330
1E
100
AcDbEntity
  8
_0-0_
100
AcDbLine
 10
1479.642997504492
 20
1174.678940008614
 30
0.0
 11
1481.27174616709
 21
1172.580037092894
 31
0.0
  0
LINE
  5
3A3
330
1E
100
AcDbEntity
  8
_0-0_
100
AcDbLine
 10
1481.27174616709
 20
1172.580037092894
 30
0.0
 11
1483.158579714863
 21
1170.877491895088
 31
0.0
  0
LINE
  5
3A4
330
1E
100
AcDbEntity
  8
_0-0_
100
AcDbLine
 10
1483.158579714863
 20
1170.877491895088
 30
0.0
 11
1485.246167665245
 21
1169.623035389501
 31
0.0
  0
LINE
  5
3A5
330
1E
100
AcDbEntity
  8
_0-0_
100
AcDbLine
 10
1485.246167665245
 20
1169.623035389501
 30
0.0
 11
1487.471079714735
 21
1168.854783602271
 31
0.0
  0
LINE
  5
3A6
330
1E
100
AcDbEntity
  8
_0-0_
100
AcDbLine
 10
1487.471079714735
 20
1168.854783602271
 30
0.0
 11
1489.765713036568
 21
1168.596079475197
 31
0.0
  0
LINE
  5
3A7
330
1E
100
AcDbEntity
  8
_0-0_
100
AcDbLine
 10
1489.765713036568
 20
1168.596079475197
 30
0.0
 11
1492.060346358401
 21
1168.854783602271
 31
0.0
  0
LINE
  5
3A8
330
1E
100
AcDbEntity
  8
_0-0_
100
AcDbLine
 10
1492.060346358401
 20
1168.854783602271
 30
0.0
 11
1494.28525840789
 21
1169.623035389501
 31
0.0
  0
LINE
  5
3A9
330
1E
100
AcDbEntity
  8
_0-0_
100
AcDbLine
 10
1494.28525840789
 20
1169.623035389501
 30
0.0
 11
1496.372846358273
 21
1170.877491895088
 31
0.0
  0
LINE
  5
3AA
330
1E
100
AcDbEntity
  8
_0-0_
100
AcDbLine
 10
1496.372846358273
 20
1170.877491895088
 30
0.0
 11
1498.259679906045
 21
1172.580037092894
 31
0.0
  0
LINE
  5
3AB
330
1E
100
AcDbEntity
  8
_0-0_
100
AcDbLine
 10
1498.259679906045
 20
1172.580037092894
 30
0.0
 11
1499.888428568644
 21
1174.678940008614
 31
0.0
  0
LINE
  5
3AC
330
1E
100
AcDbEntity
  8
_0-0_
100
AcDbLine
 10
1499.888428568644
 20
1174.678940008614
 30
0.0
 11
1501.209603642142
 21
1177.11042653925
 31
0.0
  0
LINE
  5
3AD
330
1E
100
AcDbEntity
  8
_0-0_
100
AcDbLine
 10
1501.209603642142
 20
1177.11042653925
 30
0.0
 11
1502.183061890477
 21
1179.800617196959
 31
0.0
  0
LINE
  5
3AE
330
1E
100
AcDbEntity
  8
_0-0_
100
AcDbLine
 10
1502.183061890477
 20
1179.800617196959
 30
0.0
 11
1502.779225277368
 21
1182.667771899909
 31
0.0
  0
LINE
  5
3AF
330
1E
100
AcDbEntity
  8
_0-0_
100
AcDbLine
 10
1502.779225277368
 20
1182.667771899909
 30
0.0
 11
1502.979979679977
 21
1185.624773603302
 31
0.0
  0
LINE
  5
3B0
330
1E
100
AcDbEntity
  8
_0-0_
100
AcDbLine
 10
1469.657983992038
 20
1198.124773603302
 30
0.0
 11
1466.110116081615
 21
1198.124773603302
 31
0.0
  0
LINE
  5
3B1
330
1E
100
AcDbEntity
  8
_0-0_
100
AcDbLine
 10
1466.110116081615
 20
1198.124773603302
 30
0.0
 11
1467.804600816823
 21
1209.625511971157
 31
0.0
  0
LINE
  5
3B2
330
1E
100
AcDbEntity
  8
_0-0_
100
AcDbLine
 10
1464.520930464095
 20
1173.124773603302
 30
0.0
 11
1464.520930464095
 21
1204.134163339598
 31
0.0
  0
LINE
  5
3B3
330
1E
100
AcDbEntity
  8
_0-0_
100
AcDbLine
 10
1464.520930464095
 20
1204.134163339598
 30
0.0
 11
1466.884967484069
 21
1204.134163339598
 31
0.0
  0
LINE
  5
3B4
330
1E
100
AcDbEntity
  8
_0-0_
100
AcDbLine
 10
1464.847490409511
 20
1041.624035235448
 30
0.0
 11
1460.635255920431
 21
1066.624035235176
 31
0.0
  0
LINE
  5
3B5
330
1E
100
AcDbEntity
  8
_0-0_
100
AcDbLine
 10
1467.804600816823
 20
1041.624035235448
 30
0.0
 11
1463.592366327697
 21
1066.624035235448
 31
0.0
  0
LINE
  5
3B6
330
1E
100
AcDbEntity
  8
_0-0_
100
AcDbLine
 10
1475.699287021763
 20
1037.353351693102
 30
0.0
 11
1475.699287021763
 21
1041.624035235448
 31
0.0
  0
LINE
  5
3B7
330
1E
100
AcDbEntity
  8
_0-0_
100
AcDbLine
 10
1475.699287021763
 20
1209.625511971157
 30
0.0
 11
1475.699287021763
 21
1213.896195513302
 31
0.0
  0
LINE
  5
3B8
330
1E
100
AcDbEntity
  8
_0-0_
100
AcDbLine
 10
1460.635255920431
 20
1115.188396980097
 30
0.0
 11
1465.226794506745
 21
1115.188396980097
 31
0.0
  0
LINE
  5
3B9
330
1E
100
AcDbEntity
  8
_0-0_
100
AcDbLine
 10
1460.635255920431
 20
1136.061150226508
 30
0.0
 11
1465.226794506745
 21
1136.061150226508
 31
0.0
  0
LINE
  5
3BA
330
1E
100
AcDbEntity
  8
_0-0_
100
AcDbLine
 10
1463.592366327697
 20
1136.061150226508
 30
0.0
 11
1463.592366327697
 21
1173.124773603302
 31
0.0
  0
LINE
  5
3BB
330
1E
100
AcDbEntity
  8
_0-0_
100
AcDbLine
 10
1469.657983992038
 20
1173.124773603302
 30
0.0
 11
1460.635255920431
 21
1173.124773603302
 31
0.0
  0
LINE
  5
3BC
330
1E
100
AcDbEntity
  8
_0-0_
100
AcDbLine
 10
1460.635255920431
 20
1066.624035235176
 30
0.0
 11
1460.635255920431
 21
1173.124773603302
 31
0.0
  0
LINE
  5
3BD
330
1E
100
AcDbEntity
  8
_0-0_
100
AcDbLine
 10
1463.592366327697
 20
1066.624035235448
 30
0.0
 11
1463.592366327697
 21
1115.188396980097
 31
0.0
  0
LINE
  5
3BE
330
1E
100
AcDbEntity
  8
_0-0_
100
AcDbLine
 10
1467.804600816823
 20
1209.625511971157
 30
0.0
 11
1477.240006072463
 21
1209.625511971157
 31
0.0
  0
LINE
  5
3BF
330
1E
100
AcDbEntity
  8
_0-0_
100
AcDbLine
 10
1464.847490409511
 20
1041.624035235448
 30
0.0
 11
1477.240006072463
 21
1041.624035235448
 31
0.0
  0
LINE
  5
3C0
330
1E
100
AcDbEntity
  8
_0-0_
100
AcDbLine
 10
1465.226794506745
 20
1115.188396980097
 30
0.0
 11
1465.226794506745
 21
1136.061150226508
 31
0.0
  0
LINE
  5
3C1
330
1E
100
AcDbEntity
  8
_0-0_
100
AcDbLine
 10
1463.255387568567
 20
1115.188396980097
 30
0.0
 11
1463.255387568567
 21
1136.061150226508
 31
0.0
  0
LINE
  5
3C2
330
1E
100
AcDbEntity
  8
_0-0_
100
AcDbLine
 10
1464.748453096171
 20
1103.124773603302
 30
0.0
 11
1464.748453096171
 21
1115.188396980097
 31
0.0
  0
ARC
  5
3C3
330
1E
100
AcDbEntity
  8
_0-0_
100
AcDbCircle
 10
1465.748453096171
 20
1103.124773603302
 30
0.0
 40
1.0
100
AcDbArc
 50
180.0
 51
270.0
  0
LINE
  5
3C4
330
1E
100
AcDbEntity
  8
_0-0_
100
AcDbLine
 10
1475.421035787802
 20
1102.124773603302
 30
0.0
 11
1465.748453096171
 21
1102.124773603302
 31
0.0
  0
ARC
  5
3C5
330
1E
100
AcDbEntity
  8
_0-0_
100
AcDbCircle
 10
1475.421035787802
 20
1103.124773603302
 30
0.0
 40
1.0
100
AcDbArc
 50
270.0
 51
0.0
  0
LINE
  5
3C6
330
1E
100
AcDbEntity
  8
_0-0_
100
AcDbLine
 10
1465.748453096171
 20
1147.124773603302
 30
0.0
 11
1475.421035787802
 21
1147.124773603302
 31
0.0
  0
LINE
  5
3C7
330
1E
100
AcDbEntity
  8
_0-0_
100
AcDbLine
 10
1464.748453096171
 20
1146.124773603302
 30
0.0
 11
1464.748453096171
 21
1136.061150226508
 31
0.0
  0
ARC
  5
3C8
330
1E
100
AcDbEntity
  8
_0-0_
100
AcDbCircle
 10
1465.748453096171
 20
1146.124773603302
 30
0.0
 40
1.0
100
AcDbArc
 50
90.00000000000012
 51
179.9999999999999
  0
LINE
  5
3C9
330
1E
100
AcDbEntity
  8
_0-0_
100
AcDbLine
 10
1464.748453096171
 20
1103.604714163679
 30
0.0
 11
1477.240006072463
 21
1104.614092916865
 31
0.0
  0
LINE
  5
3CA
330
1E
100
AcDbEntity
  8
_0-0_
100
AcDbLine
 10
1477.240006072463
 20
1146.569618989961
 30
0.0
 11
1464.748453096171
 21
1145.037526239589
 31
0.0
  0
LINE
  5
3CB
330
1E
100
AcDbEntity
  8
_0-0_
100
AcDbLine
 10
1476.421035787803
 20
1104.547916100709
 30
0.0
 11
1476.421035787803
 21
1103.124773603302
 31
0.0
  0
ARC
  5
3CC
330
1E
100
AcDbEntity
  8
_0-0_
100
AcDbCircle
 10
1475.421035787802
 20
1146.124773603302
 30
0.0
 40
1.0
100
AcDbArc
 50
19.70725930709814
 51
90.00000000000012
  0
LINE
  5
3CD
330
1E
100
AcDbEntity
  8
_0-0_
100
AcDbLine
 10
1483.016443134859
 20
1205.652079305245
 30
0.0
 11
1480.355998703738
 21
1205.347819530521
 31
0.0
  0
LINE
  5
3CE
330
1E
100
AcDbEntity
  8
_0-0_
100
AcDbLine
 10
1480.355998703738
 20
1205.347819530521
 30
0.0
 11
1477.776390530406
 21
1204.444284985642
 31
0.0
  0
LINE
  5
3CF
330
1E
100
AcDbEntity
  8
_0-0_
100
AcDbLine
 10
1477.776390530406
 20
1204.444284985642
 30
0.0
 11
1475.355998703866
 21
1202.968929110542
 31
0.0
  0
LINE
  5
3D0
330
1E
100
AcDbEntity
  8
_0-0_
100
AcDbLine
 10
1475.355998703866
 20
1202.968929110542
 30
0.0
 11
1473.16836560499
 21
1200.966579846921
 31
0.0
  0
LINE
  5
3D1
330
1E
100
AcDbEntity
  8
_0-0_
100
AcDbLine
 10
1473.16836560499
 20
1200.966579846921
 30
0.0
 11
1471.279961358491
 21
1198.498077563916
 31
0.0
  0
LINE
  5
3D2
330
1E
100
AcDbEntity
  8
_0-0_
100
AcDbLine
 10
1471.279961358491
 20
1198.498077563916
 30
0.0
 11
1469.748164171821
 21
1195.638426454274
 31
0.0
  0
LINE
  5
3D3
330
1E
100
AcDbEntity
  8
_0-0_
100
AcDbLine
 10
1469.748164171821
 20
1195.638426454274
 30
0.0
 11
1468.619516927369
 21
1192.474515569908
 31
0.0
  0
LINE
  5
3D4
330
1E
100
AcDbEntity
  8
_0-0_
100
AcDbLine
 10
1468.619516927369
 20
1192.474515569908
 30
0.0
 11
1467.928313000537
 21
1189.102478742023
 31
0.0
  0
LINE
  5
3D5
330
1E
100
AcDbEntity
  8
_0-0_
100
AcDbLine
 10
1467.928313000537
 20
1189.102478742023
 30
0.0
 11
1467.695554272873
 21
1185.624773603302
 31
0.0
  0
LINE
  5
3D6
330
1E
100
AcDbEntity
  8
_0-0_
100
AcDbLine
 10
1467.695554272873
 20
1185.624773603302
 30
0.0
 11
1467.928313000537
 21
1182.147068464581
 31
0.0
  0
LINE
  5
3D7
330
1E
100
AcDbEntity
  8
_0-0_
100
AcDbLine
 10
1467.928313000537
 20
1182.147068464581
 30
0.0
 11
1468.619516927369
 21
1178.775031636696
 31
0.0
  0
LINE
  5
3D8
330
1E
100
AcDbEntity
  8
_0-0_
100
AcDbLine
 10
1468.619516927369
 20
1178.775031636696
 30
0.0
 11
1469.748164171821
 21
1175.61112075233
 31
0.0
  0
LINE
  5
3D9
330
1E
100
AcDbEntity
  8
_0-0_
100
AcDbLine
 10
1469.748164171821
 20
1175.61112075233
 30
0.0
 11
1471.279961358491
 21
1172.751469642688
 31
0.0
  0
LINE
  5
3DA
330
1E
100
AcDbEntity
  8
_0-0_
100
AcDbLine
 10
1471.279961358491
 20
1172.751469642688
 30
0.0
 11
1473.16836560499
 21
1170.282967359683
 31
0.0
  0
LINE
  5
3DB
330
1E
100
AcDbEntity
  8
_0-0_
100
AcDbLine
 10
1473.16836560499
 20
1170.282967359683
 30
0.0
 11
1475.355998703866
 21
1168.280618096062
 31
0.0
  0
LINE
  5
3DC
330
1E
100
AcDbEntity
  8
_0-0_
100
AcDbLine
 10
1475.355998703866
 20
1168.280618096062
 30
0.0
 11
1477.776390530406
 21
1166.805262220962
 31
0.0
  0
LINE
  5
3DD
330
1E
100
AcDbEntity
  8
_0-0_
100
AcDbLine
 10
1477.776390530406
 20
1166.805262220962
 30
0.0
 11
1480.355998703738
 21
1165.901727676083
 31
0.0
  0
LINE
  5
3DE
330
1E
100
AcDbEntity
  8
_0-0_
100
AcDbLine
 10
1480.355998703738
 20
1165.901727676083
 30
0.0
 11
1483.016443134859
 21
1165.597467901359
 31
0.0
  0
LINE
  5
3DF
330
1E
100
AcDbEntity
  8
_0-0_
100
AcDbLine
 10
1483.016443134859
 20
1205.652079305245
 30
0.0
 11
1490.729894451098
 21
1205.652079305245
 31
0.0
  0
LINE
  5
3E0
330
1E
100
AcDbEntity
  8
_0-0_
100
AcDbLine
 10
1483.016443134859
 20
1165.597467901359
 30
0.0
 11
1490.729894451098
 21
1165.597467901359
 31
0.0
  0
LINE
  5
3E1
330
1E
100
AcDbEntity
  8
_0-0_
100
AcDbLine
 10
1477.240006072463
 20
1041.624035235448
 30
0.0
 11
1477.240006072463
 21
1167.07546333988
 31
0.0
  0
LINE
  5
3E2
330
1E
100
AcDbEntity
  8
_0-0_
100
AcDbLine
 10
1469.742139555336
 20
1175.624773603302
 30
0.0
 11
1464.520930464095
 21
1175.624773603302
 31
0.0
  0
LINE
  5
3E3
330
1E
100
AcDbEntity
  8
_0-0_
100
AcDbLine
 10
1469.657983992038
 20
1173.088361433287
 30
0.0
 11
1470.023707413508
 21
1173.278817703314
 31
0.0
  0
LINE
  5
3E4
330
1E
100
AcDbEntity
  8
_0-0_
100
AcDbLine
 10
1470.023707413508
 20
1173.278817703314
 30
0.0
 11
1470.378318513883
 21
1173.844399596008
 31
0.0
  0
LINE
  5
3E5
330
1E
100
AcDbEntity
  8
_0-0_
100
AcDbLine
 10
1470.378318513883
 20
1173.844399596008
 30
0.0
 11
1470.486692480885
 21
1174.099617357657
 31
0.0
  0
LINE
  5
3E6
330
1E
100
AcDbEntity
  8
_0-0_
100
AcDbLine
 10
1470.486692480885
 20
1197.149929848947
 30
0.0
 11
1470.137880377105
 21
1197.83140658408
 31
0.0
  0
LINE
  5
3E7
330
1E
100
AcDbEntity
  8
_0-0_
100
AcDbLine
 10
1470.137880377105
 20
1197.83140658408
 30
0.0
 11
1469.774486864505
 21
1198.141990952946
 31
0.0
  0
LINE
  5
3E8
330
1E
100
AcDbEntity
  8
_0-0_
100
AcDbLine
 10
1469.774486864505
 20
1198.141990952946
 30
0.0
 11
1469.657983992038
 21
1198.161185773317
 31
0.0
  0
LINE
  5
3E9
330
1E
100
AcDbEntity
  8
_0-0_
100
AcDbLine
 10
1469.742139555336
 20
1195.624773603302
 30
0.0
 11
1464.520930464095
 21
1195.624773603302
 31
0.0
  0
LINE
  5
3EA
330
1E
100
AcDbEntity
  8
_0-0_
100
AcDbLine
 10
1477.240006072463
 20
1204.174083866724
 30
0.0
 11
1477.240006072463
 21
1209.625511971157
 31
0.0
  0
LINE
  5
3EB
330
1E
100
AcDbEntity
  8
_0-0_
100
AcDbLine
 10
1495.951285551977
 20
1185.624773603302
 30
0.0
 11
1495.857312806562
 21
1187.361255379989
 31
0.0
  0
LINE
  5
3EC
330
1E
100
AcDbEntity
  8
_0-0_
100
AcDbLine
 10
1495.857312806562
 20
1187.361255379989
 30
0.0
 11
1495.578249884634
 21
1189.044975036595
 31
0.0
  0
LINE
  5
3ED
330
1E
100
AcDbEntity
  8
_0-0_
100
AcDbLine
 10
1495.578249884634
 20
1189.044975036595
 30
0.0
 11
1495.122575971863
 21
1190.624773603355
 31
0.0
  0
LINE
  5
3EE
330
1E
100
AcDbEntity
  8
_0-0_
100
AcDbLine
 10
1495.122575971863
 20
1190.624773603355
 30
0.0
 11
1494.504136489507
 21
1192.052649700235
 31
0.0
  0
LINE
  5
3EF
330
1E
100
AcDbEntity
  8
_0-0_
100
AcDbLine
 10
1494.504136489507
 20
1192.052649700235
 30
0.0
 11
1493.741722408291
 21
1193.285218034572
 31
0.0
  0
LINE
  5
3F0
330
1E
100
AcDbEntity
  8
_0-0_
100
AcDbLine
 10
1493.741722408291
 20
1193.285218034572
 30
0.0
 11
1492.858499294273
 21
1194.285027641237
 31
0.0
  0
LINE
  5
3F1
330
1E
100
AcDbEntity
  8
_0-0_
100
AcDbLine
 10
1492.858499294273
 20
1194.285027641237
 30
0.0
 11
1491.88130343484
 21
1195.02169981126
 31
0.0
  0
LINE
  5
3F2
330
1E
100
AcDbEntity
  8
_0-0_
100
AcDbLine
 10
1491.88130343484
 20
1195.02169981126
 30
0.0
 11
1490.839826431695
 21
1195.472851133527
 31
0.0
  0
LINE
  5
3F3
330
1E
100
AcDbEntity
  8
_0-0_
100
AcDbLine
 10
1490.839826431695
 20
1195.472851133527
 30
0.0
 11
1489.765713036568
 21
1195.624773603407
 31
0.0
  0
LINE
  5
3F4
330
1E
100
AcDbEntity
  8
_0-0_
100
AcDbLine
 10
1489.765713036568
 20
1195.624773603407
 30
0.0
 11
1488.69159964144
 21
1195.472851133527
 31
0.0
  0
LINE
  5
3F5
330
1E
100
AcDbEntity
  8
_0-0_
100
AcDbLine
 10
1488.69159964144
 20
1195.472851133527
 30
0.0
 11
1487.650122638297
 21
1195.02169981126
 31
0.0
  0
LINE
  5
3F6
330
1E
100
AcDbEntity
  8
_0-0_
100
AcDbLine
 10
1487.650122638297
 20
1195.02169981126
 30
0.0
 11
1486.672926778863
 21
1194.285027641237
 31
0.0
  0
LINE
  5
3F7
330
1E
100
AcDbEntity
  8
_0-0_
100
AcDbLine
 10
1486.672926778863
 20
1194.285027641237
 30
0.0
 11
1485.789703664845
 21
1193.285218034572
 31
0.0
  0
LINE
  5
3F8
330
1E
100
AcDbEntity
  8
_0-0_
100
AcDbLine
 10
1485.789703664845
 20
1193.285218034572
 30
0.0
 11
1485.027289583629
 21
1192.052649700235
 31
0.0
  0
LINE
  5
3F9
330
1E
100
AcDbEntity
  8
_0-0_
100
AcDbLine
 10
1485.027289583629
 20
1192.052649700235
 30
0.0
 11
1484.408850101273
 21
1190.624773603355
 31
0.0
  0
LINE
  5
3FA
330
1E
100
AcDbEntity
  8
_0-0_
100
AcDbLine
 10
1484.408850101273
 20
1190.624773603355
 30
0.0
 11
1483.953176188501
 21
1189.044975036595
 31
0.0
  0
LINE
  5
3FB
330
1E
100
AcDbEntity
  8
_0-0_
100
AcDbLine
 10
1483.953176188501
 20
1189.044975036595
 30
0.0
 11
1483.674113266573
 21
1187.361255379989
 31
0.0
  0
LINE
  5
3FC
330
1E
100
AcDbEntity
  8
_0-0_
100
AcDbLine
 10
1483.674113266573
 20
1187.361255379989
 30
0.0
 11
1483.580140521159
 21
1185.624773603302
 31
0.0
  0
LINE
  5
3FD
330
1E
100
AcDbEntity
  8
_0-0_
100
AcDbLine
 10
1483.580140521159
 20
1185.624773603302
 30
0.0
 11
1483.674113266573
 21
1183.888291826614
 31
0.0
  0
LINE
  5
3FE
330
1E
100
AcDbEntity
  8
_0-0_
100
AcDbLine
 10
1483.674113266573
 20
1183.888291826614
 30
0.0
 11
1483.953176188501
 21
1182.204572170009
 31
0.0
  0
LINE
  5
3FF
330
1E
100
AcDbEntity
  8
_0-0_
100
AcDbLine
 10
1483.953176188501
 20
1182.204572170009
 30
0.0
 11
1484.408850101273
 21
1180.624773603249
 31
0.0
  0
LINE
  5
400
330
1E
100
AcDbEntity
  8
_0-0_
100
AcDbLine
 10
1484.408850101273
 20
1180.624773603249
 30
0.0
 11
1485.027289583629
 21
1179.196897506369
 31
0.0
  0
LINE
  5
401
330
1E
100
AcDbEntity
  8
_0-0_
100
AcDbLine
 10
1485.027289583629
 20
1179.196897506369
 30
0.0
 11
1485.789703664845
 21
1177.964329172032
 31
0.0
  0
LINE
  5
402
330
1E
100
AcDbEntity
  8
_0-0_
100
AcDbLine
 10
1485.789703664845
 20
1177.964329172032
 30
0.0
 11
1486.672926778863
 21
1176.964519565367
 31
0.0
  0
LINE
  5
403
330
1E
100
AcDbEntity
  8
_0-0_
100
AcDbLine
 10
1486.672926778863
 20
1176.964519565367
 30
0.0
 11
1487.650122638297
 21
1176.227847395344
 31
0.0
  0
LINE
  5
404
330
1E
100
AcDbEntity
  8
_0-0_
100
AcDbLine
 10
1487.650122638297
 20
1176.227847395344
 30
0.0
 11
1488.69159964144
 21
1175.776696073077
 31
0.0
  0
LINE
  5
405
330
1E
100
AcDbEntity
  8
_0-0_
100
AcDbLine
 10
1488.69159964144
 20
1175.776696073077
 30
0.0
 11
1489.765713036568
 21
1175.624773603197
 31
0.0
  0
LINE
  5
406
330
1E
100
AcDbEntity
  8
_0-0_
100
AcDbLine
 10
1489.765713036568
 20
1175.624773603197
 30
0.0
 11
1490.839826431695
 21
1175.776696073077
 31
0.0
  0
LINE
  5
407
330
1E
100
AcDbEntity
  8
_0-0_
100
AcDbLine
 10
1490.839826431695
 20
1175.776696073077
 30
0.0
 11
1491.88130343484
 21
1176.227847395344
 31
0.0
  0
LINE
  5
408
330
1E
100
AcDbEntity
  8
_0-0_
100
AcDbLine
 10
1491.88130343484
 20
1176.227847395344
 30
0.0
 11
1492.858499294273
 21
1176.964519565367
 31
0.0
  0
LINE
  5
409
330
1E
100
AcDbEntity
  8
_0-0_
100
AcDbLine
 10
1492.858499294273
 20
1176.964519565367
 30
0.0
 11
1493.741722408291
 21
1177.964329172032
 31
0.0
  0
LINE
  5
40A
330
1E
100
AcDbEntity
  8
_0-0_
100
AcDbLine
 10
1493.741722408291
 20
1177.964329172032
 30
0.0
 11
1494.504136489507
 21
1179.196897506369
 31
0.0
  0
LINE
  5
40B
330
1E
100
AcDbEntity
  8
_0-0_
100
AcDbLine
 10
1494.504136489507
 20
1179.196897506369
 30
0.0
 11
1495.122575971863
 21
1180.624773603249
 31
0.0
  0
LINE
  5
40C
330
1E
100
AcDbEntity
  8
_0-0_
100
AcDbLine
 10
1495.122575971863
 20
1180.624773603249
 30
0.0
 11
1495.578249884634
 21
1182.204572170009
 31
0.0
  0
LINE
  5
40D
330
1E
100
AcDbEntity
  8
_0-0_
100
AcDbLine
 10
1495.578249884634
 20
1182.204572170009
 30
0.0
 11
1495.857312806562
 21
1183.888291826614
 31
0.0
  0
LINE
  5
40E
330
1E
100
AcDbEntity
  8
_0-0_
100
AcDbLine
 10
1495.857312806562
 20
1183.888291826614
 30
0.0
 11
1495.951285551977
 21
1185.624773603302
 31
0.0
  0
LINE
  5
40F
330
1E
100
AcDbEntity
  8
_0-0_
100
AcDbLine
 10
1323.682743742961
 20
1143.939060528728
 30
0.0
 11
1324.42784908512
 21
1144.040631533046
 31
0.0
  0
LINE
  5
410
330
1E
100
AcDbEntity
  8
_0-0_
100
AcDbLine
 10
1324.42784908512
 20
1144.040631533046
 30
0.0
 11
1325.150314778501
 21
1144.342258362433
 31
0.0
  0
LINE
  5
411
330
1E
100
AcDbEntity
  8
_0-0_
100
AcDbLine
 10
1325.150314778501
 20
1144.342258362433
 30
0.0
 11
1325.828189068592
 21
1144.834776238307
 31
0.0
  0
LINE
  5
412
330
1E
100
AcDbEntity
  8
_0-0_
100
AcDbLine
 10
1325.828189068592
 20
1144.834776238307
 30
0.0
 11
1326.440875088112
 21
1145.503220254237
 31
0.0
  0
LINE
  5
413
330
1E
100
AcDbEntity
  8
_0-0_
100
AcDbLine
 10
1326.440875088112
 20
1145.503220254237
 30
0.0
 11
1326.969756682391
 21
1146.327280077047
 31
0.0
  0
LINE
  5
414
330
1E
100
AcDbEntity
  8
_0-0_
100
AcDbLine
 10
1326.969756682391
 20
1146.327280077047
 30
0.0
 11
1327.398764051815
 21
1147.281917066015
 31
0.0
  0
LINE
  5
415
330
1E
100
AcDbEntity
  8
_0-0_
100
AcDbLine
 10
1327.398764051815
 20
1147.281917066015
 30
0.0
 11
1327.714862024551
 21
1148.338125059302
 31
0.0
  0
LINE
  5
416
330
1E
100
AcDbEntity
  8
_0-0_
100
AcDbLine
 10
1327.714862024551
 20
1148.338125059302
 30
0.0
 11
1327.908446123651
 21
1149.463811711498
 31
0.0
  0
LINE
  5
417
330
1E
100
AcDbEntity
  8
_0-0_
100
AcDbLine
 10
1327.908446123651
 20
1149.463811711498
 30
0.0
 11
1327.973634394223
 21
1150.624773603302
 31
0.0
  0
LINE
  5
418
330
1E
100
AcDbEntity
  8
_0-0_
100
AcDbLine
 10
1327.973634394223
 20
1150.624773603302
 30
0.0
 11
1327.908446123651
 21
1151.785735495106
 31
0.0
  0
LINE
  5
419
330
1E
100
AcDbEntity
  8
_0-0_
100
AcDbLine
 10
1327.908446123651
 20
1151.785735495106
 30
0.0
 11
1327.714862024551
 21
1152.911422147302
 31
0.0
  0
LINE
  5
41A
330
1E
100
AcDbEntity
  8
_0-0_
100
AcDbLine
 10
1327.714862024551
 20
1152.911422147302
 30
0.0
 11
1327.398764051815
 21
1153.967630140589
 31
0.0
  0
LINE
  5
41B
330
1E
100
AcDbEntity
  8
_0-0_
100
AcDbLine
 10
1327.398764051815
 20
1153.967630140589
 30
0.0
 11
1326.969756682391
 21
1154.922267129558
 31
0.0
  0
LINE
  5
41C
330
1E
100
AcDbEntity
  8
_0-0_
100
AcDbLine
 10
1326.969756682391
 20
1154.922267129558
 30
0.0
 11
1326.440875088112
 21
1155.746326952368
 31
0.0
  0
LINE
  5
41D
330
1E
100
AcDbEntity
  8
_0-0_
100
AcDbLine
 10
1326.440875088112
 20
1155.746326952368
 30
0.0
 11
1325.828189068592
 21
1156.414770968297
 31
0.0
  0
LINE
  5
41E
330
1E
100
AcDbEntity
  8
_0-0_
100
AcDbLine
 10
1325.828189068592
 20
1156.414770968297
 30
0.0
 11
1325.150314778501
 21
1156.907288844171
 31
0.0
  0
LINE
  5
41F
330
1E
100
AcDbEntity
  8
_0-0_
100
AcDbLine
 10
1325.150314778501
 20
1156.907288844171
 30
0.0
 11
1324.42784908512
 21
1157.208915673558
 31
0.0
  0
LINE
  5
420
330
1E
100
AcDbEntity
  8
_0-0_
100
AcDbLine
 10
1324.42784908512
 20
1157.208915673558
 30
0.0
 11
1323.682743742961
 21
1157.310486677876
 31
0.0
  0
LINE
  5
421
330
1E
100
AcDbEntity
  8
_0-0_
100
AcDbLine
 10
1323.682743742961
 20
1157.310486677876
 30
0.0
 11
1322.937638400801
 21
1157.208915673558
 31
0.0
  0
LINE
  5
422
330
1E
100
AcDbEntity
  8
_0-0_
100
AcDbLine
 10
1322.937638400801
 20
1157.208915673558
 30
0.0
 11
1322.215172707422
 21
1156.907288844171
 31
0.0
  0
LINE
  5
423
330
1E
100
AcDbEntity
  8
_0-0_
100
AcDbLine
 10
1322.215172707422
 20
1156.907288844171
 30
0.0
 11
1321.53729841733
 21
1156.414770968297
 31
0.0
  0
LINE
  5
424
330
1E
100
AcDbEntity
  8
_0-0_
100
AcDbLine
 10
1321.53729841733
 20
1156.414770968297
 30
0.0
 11
1320.92461239781
 21
1155.746326952368
 31
0.0
  0
LINE
  5
425
330
1E
100
AcDbEntity
  8
_0-0_
100
AcDbLine
 10
1320.92461239781
 20
1155.746326952368
 30
0.0
 11
1320.395730803531
 21
1154.922267129558
 31
0.0
  0
LINE
  5
426
330
1E
100
AcDbEntity
  8
_0-0_
100
AcDbLine
 10
1320.395730803531
 20
1154.922267129558
 30
0.0
 11
1319.966723434107
 21
1153.967630140589
 31
0.0
  0
LINE
  5
427
330
1E
100
AcDbEntity
  8
_0-0_
100
AcDbLine
 10
1319.966723434107
 20
1153.967630140589
 30
0.0
 11
1319.650625461371
 21
1152.911422147302
 31
0.0
  0
LINE
  5
428
330
1E
100
AcDbEntity
  8
_0-0_
100
AcDbLine
 10
1319.650625461371
 20
1152.911422147302
 30
0.0
 11
1319.457041362271
 21
1151.785735495106
 31
0.0
  0
LINE
  5
429
330
1E
100
AcDbEntity
  8
_0-0_
100
AcDbLine
 10
1319.457041362271
 20
1151.785735495106
 30
0.0
 11
1319.391853091699
 21
1150.624773603302
 31
0.0
  0
LINE
  5
42A
330
1E
100
AcDbEntity
  8
_0-0_
100
AcDbLine
 10
1319.391853091699
 20
1150.624773603302
 30
0.0
 11
1319.457041362271
 21
1149.463811711498
 31
0.0
  0
LINE
  5
42B
330
1E
100
AcDbEntity
  8
_0-0_
100
AcDbLine
 10
1319.457041362271
 20
1149.463811711498
 30
0.0
 11
1319.650625461371
 21
1148.338125059302
 31
0.0
  0
LINE
  5
42C
330
1E
100
AcDbEntity
  8
_0-0_
100
AcDbLine
 10
1319.650625461371
 20
1148.338125059302
 30
0.0
 11
1319.966723434107
 21
1147.281917066015
 31
0.0
  0
LINE
  5
42D
330
1E
100
AcDbEntity
  8
_0-0_
100
AcDbLine
 10
1319.966723434107
 20
1147.281917066015
 30
0.0
 11
1320.395730803531
 21
1146.327280077047
 31
0.0
  0
LINE
  5
42E
330
1E
100
AcDbEntity
  8
_0-0_
100
AcDbLine
 10
1320.395730803531
 20
1146.327280077047
 30
0.0
 11
1320.92461239781
 21
1145.503220254237
 31
0.0
  0
LINE
  5
42F
330
1E
100
AcDbEntity
  8
_0-0_
100
AcDbLine
 10
1320.92461239781
 20
1145.503220254237
 30
0.0
 11
1321.53729841733
 21
1144.834776238307
 31
0.0
  0
LINE
  5
430
330
1E
100
AcDbEntity
  8
_0-0_
100
AcDbLine
 10
1321.53729841733
 20
1144.834776238307
 30
0.0
 11
1322.215172707422
 21
1144.342258362433
 31
0.0
  0
LINE
  5
431
330
1E
100
AcDbEntity
  8
_0-0_
100
AcDbLine
 10
1322.215172707422
 20
1144.342258362433
 30
0.0
 11
1322.937638400801
 21
1144.040631533046
 31
0.0
  0
LINE
  5
432
330
1E
100
AcDbEntity
  8
_0-0_
100
AcDbLine
 10
1322.937638400801
 20
1144.040631533046
 30
0.0
 11
1323.682743742961
 21
1143.939060528728
 31
0.0
  0
LINE
  5
433
330
1E
100
AcDbEntity
  8
_0-0_
100
AcDbLine
 10
1323.676140867967
 20
1143.939068444427
 30
0.0
 11
1330.570540856038
 21
1143.624773603302
 31
0.0
  0
LINE
  5
434
330
1E
100
AcDbEntity
  8
_0-0_
100
AcDbLine
 10
1323.676140867967
 20
1157.310478762178
 30
0.0
 11
1330.570540856038
 21
1157.624773603302
 31
0.0
  0
LINE
  5
435
330
1E
100
AcDbEntity
  8
_0-0_
100
AcDbLine
 10
1330.570540856038
 20
1143.624773603302
 30
0.0
 11
1331.352009749992
 21
1143.731119332217
 31
0.0
  0
LINE
  5
436
330
1E
100
AcDbEntity
  8
_0-0_
100
AcDbLine
 10
1331.352009749992
 20
1143.731119332217
 30
0.0
 11
1332.109734107047
 21
1144.046925257801
 31
0.0
  0
LINE
  5
437
330
1E
100
AcDbEntity
  8
_0-0_
100
AcDbLine
 10
1332.109734107047
 20
1144.046925257801
 30
0.0
 11
1332.820690856038
 21
1144.562595776811
 31
0.0
  0
LINE
  5
438
330
1E
100
AcDbEntity
  8
_0-0_
100
AcDbLine
 10
1332.820690856038
 20
1144.562595776811
 30
0.0
 11
1333.463277935911
 21
1145.262462501469
 31
0.0
  0
LINE
  5
439
330
1E
100
AcDbEntity
  8
_0-0_
100
AcDbLine
 10
1333.463277935911
 20
1145.262462501469
 30
0.0
 11
1334.017970663406
 21
1146.125260335497
 31
0.0
  0
LINE
  5
43A
330
1E
100
AcDbEntity
  8
_0-0_
100
AcDbLine
 10
1334.017970663406
 20
1146.125260335497
 30
0.0
 11
1334.467914980689
 21
1147.124773603302
 31
0.0
  0
LINE
  5
43B
330
1E
100
AcDbEntity
  8
_0-0_
100
AcDbLine
 10
1334.467914980689
 20
1147.124773603302
 30
0.0
 11
1334.799439557361
 21
1148.230632600022
 31
0.0
  0
LINE
  5
43C
330
1E
100
AcDbEntity
  8
_0-0_
100
AcDbLine
 10
1334.799439557361
 20
1148.230632600022
 30
0.0
 11
1335.002471186919
 21
1149.409236359634
 31
0.0
  0
LINE
  5
43D
330
1E
100
AcDbEntity
  8
_0-0_
100
AcDbLine
 10
1335.002471186919
 20
1149.409236359634
 30
0.0
 11
1335.070840856038
 21
1150.624773603302
 31
0.0
  0
LINE
  5
43E
330
1E
100
AcDbEntity
  8
_0-0_
100
AcDbLine
 10
1335.070840856038
 20
1150.624773603302
 30
0.0
 11
1335.002471186919
 21
1151.840310846971
 31
0.0
  0
LINE
  5
43F
330
1E
100
AcDbEntity
  8
_0-0_
100
AcDbLine
 10
1335.002471186919
 20
1151.840310846971
 30
0.0
 11
1334.799439557361
 21
1153.018914606582
 31
0.0
  0
LINE
  5
440
330
1E
100
AcDbEntity
  8
_0-0_
100
AcDbLine
 10
1334.799439557361
 20
1153.018914606582
 30
0.0
 11
1334.467914980689
 21
1154.124773603302
 31
0.0
  0
LINE
  5
441
330
1E
100
AcDbEntity
  8
_0-0_
100
AcDbLine
 10
1334.467914980689
 20
1154.124773603302
 30
0.0
 11
1334.017970663406
 21
1155.124286871108
 31
0.0
  0
LINE
  5
442
330
1E
100
AcDbEntity
  8
_0-0_
100
AcDbLine
 10
1334.017970663406
 20
1155.124286871108
 30
0.0
 11
1333.463277935911
 21
1155.987084705135
 31
0.0
  0
LINE
  5
443
330
1E
100
AcDbEntity
  8
_0-0_
100
AcDbLine
 10
1333.463277935911
 20
1155.987084705135
 30
0.0
 11
1332.820690856038
 21
1156.686951429793
 31
0.0
  0
LINE
  5
444
330
1E
100
AcDbEntity
  8
_0-0_
100
AcDbLine
 10
1332.820690856038
 20
1156.686951429793
 30
0.0
 11
1332.109734107047
 21
1157.202621948803
 31
0.0
  0
LINE
  5
445
330
1E
100
AcDbEntity
  8
_0-0_
100
AcDbLine
 10
1332.109734107047
 20
1157.202621948803
 30
0.0
 11
1331.352009749992
 21
1157.518427874388
 31
0.0
  0
LINE
  5
446
330
1E
100
AcDbEntity
  8
_0-0_
100
AcDbLine
 10
1331.352009749992
 20
1157.518427874388
 30
0.0
 11
1330.570540856038
 21
1157.624773603302
 31
0.0
  0
LINE
  5
447
330
1E
100
AcDbEntity
  8
_0-0_
100
AcDbLine
 10
1330.570540856038
 20
1157.624773603302
 30
0.0
 11
1330.306978861087
 21
1157.612758609181
 31
0.0
  0
LINE
  5
448
330
1E
100
AcDbEntity
  8
_0-0_
100
AcDbLine
 10
1329.177938930728
 20
1143.688258112704
 30
0.0
 11
1330.018863511497
 21
1142.54283293631
 31
0.0
  0
LINE
  5
449
330
1E
100
AcDbEntity
  8
_0-0_
100
AcDbLine
 10
1330.018863511497
 20
1142.54283293631
 30
0.0
 11
1330.974309194838
 21
1141.642973437424
 31
0.0
  0
LINE
  5
44A
330
1E
100
AcDbEntity
  8
_0-0_
100
AcDbLine
 10
1330.974309194838
 20
1141.642973437424
 30
0.0
 11
1332.015245247142
 21
1141.016021391567
 31
0.0
  0
LINE
  5
44B
330
1E
100
AcDbEntity
  8
_0-0_
100
AcDbLine
 10
1332.015245247142
 20
1141.016021391567
 30
0.0
 11
1333.1100433532
 21
1140.681026419402
 31
0.0
  0
LINE
  5
44C
330
1E
100
AcDbEntity
  8
_0-0_
100
AcDbLine
 10
1333.1100433532
 20
1140.681026419402
 30
0.0
 11
1334.225438626554
 21
1140.648167173639
 31
0.0
  0
LINE
  5
44D
330
1E
100
AcDbEntity
  8
_0-0_
100
AcDbLine
 10
1334.225438626554
 20
1140.648167173639
 30
0.0
 11
1335.327540346239
 21
1140.918442065836
 31
0.0
  0
LINE
  5
44E
330
1E
100
AcDbEntity
  8
_0-0_
100
AcDbLine
 10
1335.327540346239
 20
1140.918442065836
 30
0.0
 11
1336.382861709193
 21
1141.483638930158
 31
0.0
  0
LINE
  5
44F
330
1E
100
AcDbEntity
  8
_0-0_
100
AcDbLine
 10
1336.382861709193
 20
1141.483638930158
 30
0.0
 11
1337.359337309822
 21
1142.326584545886
 31
0.0
  0
LINE
  5
450
330
1E
100
AcDbEntity
  8
_0-0_
100
AcDbLine
 10
1337.359337309822
 20
1142.326584545886
 30
0.0
 11
1338.227297431121
 21
1143.421666437037
 31
0.0
  0
LINE
  5
451
330
1E
100
AcDbEntity
  8
_0-0_
100
AcDbLine
 10
1338.227297431121
 20
1143.421666437037
 30
0.0
 11
1338.960369544013
 21
1144.735611094487
 31
0.0
  0
LINE
  5
452
330
1E
100
AcDbEntity
  8
_0-0_
100
AcDbLine
 10
1338.960369544013
 20
1144.735611094487
 30
0.0
 11
1339.5362796233
 21
1146.228494974708
 31
0.0
  0
LINE
  5
453
330
1E
100
AcDbEntity
  8
_0-0_
100
AcDbLine
 10
1339.5362796233
 20
1146.228494974708
 30
0.0
 11
1339.937528932648
 21
1147.854957556434
 31
0.0
  0
LINE
  5
454
330
1E
100
AcDbEntity
  8
_0-0_
100
AcDbLine
 10
1339.937528932648
 20
1147.854957556434
 30
0.0
 11
1340.151925714835
 21
1149.565579597149
 31
0.0
  0
LINE
  5
455
330
1E
100
AcDbEntity
  8
_0-0_
100
AcDbLine
 10
1340.151925714835
 20
1149.565579597149
 30
0.0
 11
1340.172955632122
 21
1151.308384711764
 31
0.0
  0
LINE
  5
456
330
1E
100
AcDbEntity
  8
_0-0_
100
AcDbLine
 10
1340.172955632122
 20
1151.308384711764
 30
0.0
 11
1339.999979701117
 21
1153.030418648772
 31
0.0
  0
LINE
  5
457
330
1E
100
AcDbEntity
  8
_0-0_
100
AcDbLine
 10
1339.999979701117
 20
1153.030418648772
 30
0.0
 11
1339.63825370795
 21
1154.679358278388
 31
0.0
  0
LINE
  5
458
330
1E
100
AcDbEntity
  8
_0-0_
100
AcDbLine
 10
1339.63825370795
 20
1154.679358278388
 30
0.0
 11
1339.098768513884
 21
1156.205101404371
 31
0.0
  0
LINE
  5
459
330
1E
100
AcDbEntity
  8
_0-0_
100
AcDbLine
 10
1339.098768513884
 20
1156.205101404371
 30
0.0
 11
1338.397916103548
 21
1157.5612890939
 31
0.0
  0
LINE
  5
45A
330
1E
100
AcDbEntity
  8
_0-0_
100
AcDbLine
 10
1338.397916103548
 20
1157.5612890939
 30
0.0
 11
1337.55699152278
 21
1158.706714270294
 31
0.0
  0
LINE
  5
45B
330
1E
100
AcDbEntity
  8
_0-0_
100
AcDbLine
 10
1337.55699152278
 20
1158.706714270294
 30
0.0
 11
1336.601545839438
 21
1159.60657376918
 31
0.0
  0
LINE
  5
45C
330
1E
100
AcDbEntity
  8
_0-0_
100
AcDbLine
 10
1336.601545839438
 20
1159.60657376918
 30
0.0
 11
1335.560609787134
 21
1160.233525815037
 31
0.0
  0
LINE
  5
45D
330
1E
100
AcDbEntity
  8
_0-0_
100
AcDbLine
 10
1335.560609787134
 20
1160.233525815037
 30
0.0
 11
1334.465811681076
 21
1160.568520787202
 31
0.0
  0
LINE
  5
45E
330
1E
100
AcDbEntity
  8
_0-0_
100
AcDbLine
 10
1334.465811681076
 20
1160.568520787202
 30
0.0
 11
1333.350416407723
 21
1160.601380032965
 31
0.0
  0
LINE
  5
45F
330
1E
100
AcDbEntity
  8
_0-0_
100
AcDbLine
 10
1333.350416407723
 20
1160.601380032965
 30
0.0
 11
1332.248314688037
 21
1160.331105140768
 31
0.0
  0
LINE
  5
460
330
1E
100
AcDbEntity
  8
_0-0_
100
AcDbLine
 10
1332.248314688037
 20
1160.331105140768
 30
0.0
 11
1331.192993325083
 21
1159.765908276446
 31
0.0
  0
LINE
  5
461
330
1E
100
AcDbEntity
  8
_0-0_
100
AcDbLine
 10
1331.192993325083
 20
1159.765908276446
 30
0.0
 11
1330.216517724454
 21
1158.922962660718
 31
0.0
  0
LINE
  5
462
330
1E
100
AcDbEntity
  8
_0-0_
100
AcDbLine
 10
1330.216517724454
 20
1158.922962660718
 30
0.0
 11
1329.348557603156
 21
1157.827880769567
 31
0.0
  0
LINE
  5
463
330
1E
100
AcDbEntity
  8
_0-0_
100
AcDbLine
 10
1329.348557603156
 20
1157.827880769567
 30
0.0
 11
1329.177938930728
 21
1157.5612890939
 31
0.0
  0
LINE
  5
464
330
1E
100
AcDbEntity
  8
_0-0_
100
AcDbLine
 10
1836.189655172413
 20
995.6247736033022
 30
0.0
 11
1836.189655172413
 21
1255.624773603302
 31
0.0
  0
LINE
  5
465
330
1E
100
AcDbEntity
  8
_0-0_
100
AcDbLine
 10
1836.189655172413
 20
995.6247736033022
 30
0.0
 11
1833.083826631184
 21
1007.215883518771
 31
0.0
  0
LINE
  5
466
330
1E
100
AcDbEntity
  8
_0-0_
100
AcDbLine
 10
1836.189655172413
 20
995.6247736033022
 30
0.0
 11
1839.295483713644
 21
1007.215883518771
 31
0.0
  0
LINE
  5
467
330
1E
100
AcDbEntity
  8
_0-0_
100
AcDbLine
 10
1836.189655172413
 20
1255.624773603302
 30
0.0
 11
1833.083826631184
 21
1244.033663687833
 31
0.0
  0
LINE
  5
468
330
1E
100
AcDbEntity
  8
_0-0_
100
AcDbLine
 10
1836.189655172413
 20
1255.624773603302
 30
0.0
 11
1839.295483713644
 21
1244.033663687833
 31
0.0
  0
LINE
  5
469
330
1E
100
AcDbEntity
  8
_0-0_
100
AcDbLine
 10
1836.189655172413
 20
995.6247736033022
 30
0.0
 11
1729.199287021784
 21
995.6247736033022
 31
0.0
  0
LINE
  5
46A
330
1E
100
AcDbEntity
  8
_0-0_
100
AcDbLine
 10
1836.189655172413
 20
1255.624773603302
 30
0.0
 11
1729.199287021784
 21
1255.624773603302
 31
0.0
  0
LINE
  5
46B
330
1E
100
AcDbEntity
  8
_0-0_
100
AcDbLine
 10
1118.199287021678
 20
1299.827586206896
 30
0.0
 11
1748.199287021784
 21
1299.827586206896
 31
0.0
  0
LINE
  5
46C
330
1E
100
AcDbEntity
  8
_0-0_
100
AcDbLine
 10
1118.199287021678
 20
1299.827586206896
 30
0.0
 11
1129.790396937147
 21
1302.933414748127
 31
0.0
  0
LINE
  5
46D
330
1E
100
AcDbEntity
  8
_0-0_
100
AcDbLine
 10
1118.199287021678
 20
1299.827586206896
 30
0.0
 11
1129.790396937147
 21
1296.721757665666
 31
0.0
  0
LINE
  5
46E
330
1E
100
AcDbEntity
  8
_0-0_
100
AcDbLine
 10
1748.199287021784
 20
1299.827586206896
 30
0.0
 11
1736.608177106315
 21
1302.933414748127
 31
0.0
  0
LINE
  5
46F
330
1E
100
AcDbEntity
  8
_0-0_
100
AcDbLine
 10
1748.199287021784
 20
1299.827586206896
 30
0.0
 11
1736.608177106315
 21
1296.721757665666
 31
0.0
  0
LINE
  5
470
330
1E
100
AcDbEntity
  8
_0-0_
100
AcDbLine
 10
1118.199287021678
 20
1299.827586206896
 30
0.0
 11
1118.199287021678
 21
1137.624773603302
 31
0.0
  0
LINE
  5
471
330
1E
100
AcDbEntity
  8
_0-0_
100
AcDbLine
 10
1748.199287021784
 20
1299.827586206896
 30
0.0
 11
1748.199287021784
 21
1258.640941226716
 31
0.0
  0
LINE
  5
472
330
1E
100
AcDbEntity
  8
_0-0_
100
AcDbLine
 10
1336.913724421181
 20
1179.192987408118
 30
0.0
 11
1332.603326254319
 21
1179.563576209968
 31
0.0
  0
LINE
  5
473
330
1E
100
AcDbEntity
  8
_0-0_
100
AcDbLine
 10
1332.603326254319
 20
1179.563576209968
 30
0.0
 11
1328.328921597391
 21
1178.295261788966
 31
0.0
  0
LINE
  5
474
330
1E
100
AcDbEntity
  8
_0-0_
100
AcDbLine
 10
1328.328921597391
 20
1178.295261788966
 30
0.0
 11
1324.220386072944
 21
1175.426581236995
 31
0.0
  0
LINE
  5
475
330
1E
100
AcDbEntity
  8
_0-0_
100
AcDbLine
 10
1324.220386072944
 20
1175.426581236995
 30
0.0
 11
1320.402555453869
 21
1171.044697961006
 31
0.0
  0
LINE
  5
476
330
1E
100
AcDbEntity
  8
_0-0_
100
AcDbLine
 10
1320.402555453869
 20
1171.044697961006
 30
0.0
 11
1316.991432591612
 21
1165.282753266998
 31
0.0
  0
LINE
  5
477
330
1E
100
AcDbEntity
  8
_0-0_
100
AcDbLine
 10
1316.991432591612
 20
1165.282753266998
 30
0.0
 11
1314.09066272823
 21
1158.315820928814
 31
0.0
  0
LINE
  5
478
330
1E
100
AcDbEntity
  8
_0-0_
100
AcDbLine
 10
1314.09066272823
 20
1158.315820928814
 30
0.0
 11
1311.788384288163
 21
1150.355587660114
 31
0.0
  0
LINE
  5
479
330
1E
100
AcDbEntity
  8
_0-0_
100
AcDbLine
 10
1311.788384288163
 20
1150.355587660114
 30
0.0
 11
1310.154550836801
 21
1141.643921120693
 31
0.0
  0
LINE
  5
47A
330
1E
100
AcDbEntity
  8
_0-0_
100
AcDbLine
 10
1310.154550836801
 20
1141.643921120693
 30
0.0
 11
1309.238805576806
 21
1132.445520890035
 31
0.0
  0
LINE
  5
47B
330
1E
100
AcDbEntity
  8
_0-0_
100
AcDbLine
 10
1309.238805576806
 20
1132.445520890035
 30
0.0
 11
1309.068972964513
 21
1123.039875704535
 31
0.0
  0
LINE
  5
47C
330
1E
100
AcDbEntity
  8
_0-0_
100
AcDbLine
 10
1309.068972964513
 20
1123.039875704535
 30
0.0
 11
1309.650213277907
 21
1113.712771333667
 31
0.0
  0
LINE
  5
47D
330
1E
100
AcDbEntity
  8
_0-0_
100
AcDbLine
 10
1309.650213277907
 20
1113.712771333667
 30
0.0
 11
1310.964865824187
 21
1104.747607123998
 31
0.0
  0
LINE
  5
47E
330
1E
100
AcDbEntity
  8
_0-0_
100
AcDbLine
 10
1310.964865824187
 20
1104.747607123998
 30
0.0
 11
1312.972985550982
 21
1096.416785053448
 31
0.0
  0
LINE
  5
47F
330
1E
100
AcDbEntity
  8
_0-0_
100
AcDbLine
 10
1312.972985550982
 20
1096.416785053448
 30
0.0
 11
1315.613556756548
 21
1088.973432935029
 31
0.0
  0
LINE
  5
480
330
1E
100
AcDbEntity
  8
_0-0_
100
AcDbLine
 10
1315.613556756548
 20
1088.973432935029
 30
0.0
 11
1318.806347021
 21
1082.643713256342
 31
0.0
  0
LINE
  5
481
330
1E
100
AcDbEntity
  8
_0-0_
100
AcDbLine
 10
1318.806347021
 20
1082.643713256342
 30
0.0
 11
1322.454345027782
 21
1077.619951346831
 31
0.0
  0
LINE
  5
482
330
1E
100
AcDbEntity
  8
_0-0_
100
AcDbLine
 10
1322.454345027782
 20
1077.619951346831
 30
0.0
 11
1326.446708203433
 21
1074.054791669972
 31
0.0
  0
LINE
  5
483
330
1E
100
AcDbEntity
  8
_0-0_
100
AcDbLine
 10
1326.446708203433
 20
1074.054791669972
 30
0.0
 11
1330.662130613095
 21
1072.056559798486
 31
0.0
  0
LINE
  5
484
330
1E
100
AcDbEntity
  8
_0-0_
100
AcDbLine
 10
1330.662130613095
 20
1072.056559798486
 30
0.0
 11
1334.972528779957
 21
1071.685970996636
 31
0.0
  0
LINE
  5
485
330
1E
100
AcDbEntity
  8
_0-0_
100
AcDbLine
 10
1334.972528779957
 20
1071.685970996636
 30
0.0
 11
1336.370657080637
 21
1071.918957555414
 31
0.0
  0
LINE
  5
486
330
1E
100
AcDbEntity
  8
_0-0_
100
AcDbLine
 10
1336.407454651295
 20
1071.927444206161
 30
0.0
 11
1340.640843339085
 21
1073.735804585275
 31
0.0
  0
LINE
  5
487
330
1E
100
AcDbEntity
  8
_0-0_
100
AcDbLine
 10
1340.640843339085
 20
1073.735804585275
 30
0.0
 11
1344.666009647369
 21
1077.120785030916
 31
0.0
  0
LINE
  5
488
330
1E
100
AcDbEntity
  8
_0-0_
100
AcDbLine
 10
1344.666009647369
 20
1077.120785030916
 30
0.0
 11
1348.3606509347
 21
1081.979534625126
 31
0.0
  0
LINE
  5
489
330
1E
100
AcDbEntity
  8
_0-0_
100
AcDbLine
 10
1348.3606509347
 20
1081.979534625126
 30
0.0
 11
1351.612507395143
 21
1088.164422720133
 31
0.0
  0
LINE
  5
48A
330
1E
100
AcDbEntity
  8
_0-0_
100
AcDbLine
 10
1351.612507395143
 20
1088.164422720133
 30
0.0
 11
1354.322773015665
 21
1095.487524620872
 31
0.0
  0
LINE
  5
48B
330
1E
100
AcDbEntity
  8
_0-0_
100
AcDbLine
 10
1354.322773015665
 20
1095.487524620872
 30
0.0
 11
1356.409097746847
 21
1103.726331581758
 31
0.0
  0
LINE
  5
48C
330
1E
100
AcDbEntity
  8
_0-0_
100
AcDbLine
 10
1356.409097746847
 20
1103.726331581758
 30
0.0
 11
1357.808089667464
 21
1112.630511622322
 31
0.0
  0
LINE
  5
48D
330
1E
100
AcDbEntity
  8
_0-0_
100
AcDbLine
 10
1357.808089667464
 20
1112.630511622322
 30
0.0
 11
1358.477241115932
 21
1121.929515737766
 31
0.0
  0
LINE
  5
48E
330
1E
100
AcDbEntity
  8
_0-0_
100
AcDbLine
 10
1358.477241115932
 20
1121.929515737766
 30
0.0
 11
1358.396220264096
 21
1131.340798393562
 31
0.0
  0
LINE
  5
48F
330
1E
100
AcDbEntity
  8
_0-0_
100
AcDbLine
 10
1358.396220264096
 20
1131.340798393562
 30
0.0
 11
1357.567488889542
 21
1140.578402528554
 31
0.0
  0
LINE
  5
490
330
1E
100
AcDbEntity
  8
_0-0_
100
AcDbLine
 10
1357.567488889542
 20
1140.578402528554
 30
0.0
 11
1356.016227575725
 21
1149.361648215554
 31
0.0
  0
LINE
  5
491
330
1E
100
AcDbEntity
  8
_0-0_
100
AcDbLine
 10
1356.016227575725
 20
1149.361648215554
 30
0.0
 11
1353.78957061269
 21
1157.423660978899
 31
0.0
  0
LINE
  5
492
330
1E
100
AcDbEntity
  8
_0-0_
100
AcDbLine
 10
1353.78957061269
 20
1157.423660978899
 30
0.0
 11
1350.955173845517
 21
1164.51948064035
 31
0.0
  0
LINE
  5
493
330
1E
100
AcDbEntity
  8
_0-0_
100
AcDbLine
 10
1350.955173845517
 20
1164.51948064035
 30
0.0
 11
1347.599158985702
 21
1170.433504310152
 31
0.0
  0
LINE
  5
494
330
1E
100
AcDbEntity
  8
_0-0_
100
AcDbLine
 10
1347.599158985702
 20
1170.433504310152
 30
0.0
 11
1343.823496846535
 21
1174.986037371737
 31
0.0
  0
LINE
  5
495
330
1E
100
AcDbEntity
  8
_0-0_
100
AcDbLine
 10
1343.823496846535
 20
1174.986037371737
 30
0.0
 11
1339.742909011537
 21
1178.038753411724
 31
0.0
  0
LINE
  5
496
330
1E
100
AcDbEntity
  8
_0-0_
100
AcDbLine
 10
1339.742909011537
 20
1178.038753411724
 30
0.0
 11
1336.407454651295
 21
1179.322103000443
 31
0.0
  0
LINE
  5
497
330
1E
100
AcDbEntity
  8
_0-0_
100
AcDbLine
 10
1336.907213655672
 20
1176.905045110336
 30
0.0
 11
1332.884936926567
 21
1176.439392217627
 31
0.0
  0
LINE
  5
498
330
1E
100
AcDbEntity
  8
_0-0_
100
AcDbLine
 10
1332.884936926567
 20
1176.439392217627
 30
0.0
 11
1328.960179967695
 21
1174.429762851759
 31
0.0
  0
LINE
  5
499
330
1E
100
AcDbEntity
  8
_0-0_
100
AcDbLine
 10
1328.960179967695
 20
1174.429762851759
 30
0.0
 11
1325.252194533228
 21
1170.937218584093
 31
0.0
  0
LINE
  5
49A
330
1E
100
AcDbEntity
  8
_0-0_
100
AcDbLine
 10
1325.252194533228
 20
1170.937218584093
 30
0.0
 11
1321.873645884264
 21
1166.06787860489
 31
0.0
  0
LINE
  5
49B
330
1E
100
AcDbEntity
  8
_0-0_
100
AcDbLine
 10
1321.873645884264
 20
1166.06787860489
 30
0.0
 11
1318.927189511871
 21
1159.969695345411
 31
0.0
  0
LINE
  5
49C
330
1E
100
AcDbEntity
  8
_0-0_
100
AcDbLine
 10
1318.927189511871
 20
1159.969695345411
 30
0.0
 11
1316.502352001945
 21
1152.827959018168
 31
0.0
  0
LINE
  5
49D
330
1E
100
AcDbEntity
  8
_0-0_
100
AcDbLine
 10
1316.502352001945
 20
1152.827959018168
 30
0.0
 11
1314.672810815199
 21
1144.85966766757
 31
0.0
  0
LINE
  5
49E
330
1E
100
AcDbEntity
  8
_0-0_
100
AcDbLine
 10
1314.672810815199
 20
1144.85966766757
 30
0.0
 11
1313.494155634801
 21
1136.306933794156
 31
0.0
  0
LINE
  5
49F
330
1E
100
AcDbEntity
  8
_0-0_
100
AcDbLine
 10
1313.494155634801
 20
1136.306933794156
 30
0.0
 11
1313.002199301977
 21
1127.429627888776
 31
0.0
  0
LINE
  5
4A0
330
1E
100
AcDbEntity
  8
_0-0_
100
AcDbLine
 10
1313.002199301977
 20
1127.429627888776
 30
0.0
 11
1313.21188966096
 21
1118.497482399232
 31
0.0
  0
LINE
  5
4A1
330
1E
100
AcDbEntity
  8
_0-0_
100
AcDbLine
 10
1313.21188966096
 20
1118.497482399232
 30
0.0
 11
1314.116855376298
 21
1109.781896046341
 31
0.0
  0
LINE
  5
4A2
330
1E
100
AcDbEntity
  8
_0-0_
100
AcDbLine
 10
1314.116855376298
 20
1109.781896046341
 30
0.0
 11
1315.689599522668
 21
1101.547687511135
 31
0.0
  0
LINE
  5
4A3
330
1E
100
AcDbEntity
  8
_0-0_
100
AcDbLine
 10
1315.689599522668
 20
1101.547687511135
 30
0.0
 11
1317.882335065028
 21
1094.045049053246
 31
0.0
  0
LINE
  5
4A4
330
1E
100
AcDbEntity
  8
_0-0_
100
AcDbLine
 10
1317.882335065028
 20
1094.045049053246
 30
0.0
 11
1320.628436843502
 21
1087.501944545699
 31
0.0
  0
LINE
  5
4A5
330
1E
100
AcDbEntity
  8
_0-0_
100
AcDbLine
 10
1320.628436843502
 20
1087.501944545699
 30
0.0
 11
1323.844465945144
 21
1082.117182907984
 31
0.0
  0
LINE
  5
4A6
330
1E
100
AcDbEntity
  8
_0-0_
100
AcDbLine
 10
1323.844465945144
 20
1082.117182907984
 30
0.0
 11
1327.432704953091
 21
1078.054377397645
 31
0.0
  0
LINE
  5
4A7
330
1E
100
AcDbEntity
  8
_0-0_
100
AcDbLine
 10
1327.432704953091
 20
1078.054377397645
 30
0.0
 11
1331.284127040823
 21
1075.436974304231
 31
0.0
  0
LINE
  5
4A8
330
1E
100
AcDbEntity
  8
_0-0_
100
AcDbLine
 10
1331.284127040823
 20
1075.436974304231
 30
0.0
 11
1335.281708697118
 21
1074.344502096269
 31
0.0
  0
LINE
  5
4A9
330
1E
100
AcDbEntity
  8
_0-0_
100
AcDbLine
 10
1335.281708697118
 20
1074.344502096269
 30
0.0
 11
1336.407454651295
 21
1074.317457911713
 31
0.0
  0
LINE
  5
4AA
330
1E
100
AcDbEntity
  8
_0-0_
100
AcDbLine
 10
1336.407454651295
 20
1074.317457911713
 30
0.0
 11
1340.414743525883
 21
1075.217626345292
 31
0.0
  0
LINE
  5
4AB
330
1E
100
AcDbEntity
  8
_0-0_
100
AcDbLine
 10
1340.414743525883
 20
1075.217626345292
 30
0.0
 11
1344.29076280745
 21
1077.649390441059
 31
0.0
  0
LINE
  5
4AC
330
1E
100
AcDbEntity
  8
_0-0_
100
AcDbLine
 10
1344.29076280745
 20
1077.649390441059
 30
0.0
 11
1347.917741611487
 21
1081.538862277495
 31
0.0
  0
LINE
  5
4AD
330
1E
100
AcDbEntity
  8
_0-0_
100
AcDbLine
 10
1347.917741611487
 20
1081.538862277495
 30
0.0
 11
1349.150677206039
 21
1083.289225028763
 31
0.0
  0
LINE
  5
4AE
330
1E
100
AcDbEntity
  8
_0-0_
100
AcDbLine
 10
1349.150677206039
 20
1167.960322177842
 30
0.0
 11
1345.64183928869
 21
1172.351824584177
 31
0.0
  0
LINE
  5
4AF
330
1E
100
AcDbEntity
  8
_0-0_
100
AcDbLine
 10
1345.64183928869
 20
1172.351824584177
 30
0.0
 11
1341.842909118606
 21
1175.323549191487
 31
0.0
  0
LINE
  5
4B0
330
1E
100
AcDbEntity
  8
_0-0_
100
AcDbLine
 10
1341.842909118606
 20
1175.323549191487
 30
0.0
 11
1337.869315266652
 21
1176.785201651344
 31
0.0
  0
LINE
  5
4B1
330
1E
100
AcDbEntity
  8
_0-0_
100
AcDbLine
 10
1337.869315266652
 20
1176.785201651344
 30
0.0
 11
1336.407454651295
 21
1176.932089294892
 31
0.0
  0
LINE
  5
4B2
330
1E
100
AcDbEntity
  8
_0-0_
100
AcDbLine
 10
1746.513172679507
 20
1185.305970835784
 30
0.0
 11
1747.335650750137
 21
1186.85726213928
 31
0.0
  0
LINE
  5
4B3
330
1E
100
AcDbEntity
  8
_0-0_
100
AcDbLine
 10
1747.335650750137
 20
1186.85726213928
 30
0.0
 11
1747.866926207065
 21
1188.523027372157
 31
0.0
  0
LINE
  5
4B4
330
1E
100
AcDbEntity
  8
_0-0_
100
AcDbLine
 10
1747.866926207065
 20
1188.523027372157
 30
0.0
 11
1748.09085651437
 21
1190.252653100733
 31
0.0
  0
LINE
  5
4B5
330
1E
100
AcDbEntity
  8
_0-0_
100
AcDbLine
 10
1748.09085651437
 20
1190.252653100733
 30
0.0
 11
1748.000637662979
 21
1191.993585522477
 31
0.0
  0
LINE
  5
4B6
330
1E
100
AcDbEntity
  8
_0-0_
100
AcDbLine
 10
1748.000637662979
 20
1191.993585522477
 30
0.0
 11
1747.599010907039
 21
1193.69292728671
 31
0.0
  0
LINE
  5
4B7
330
1E
100
AcDbEntity
  8
_0-0_
100
AcDbLine
 10
1747.599010907039
 20
1193.69292728671
 30
0.0
 11
1746.898179472296
 21
1195.299044753832
 31
0.0
  0
LINE
  5
4B8
330
1E
100
AcDbEntity
  8
_0-0_
100
AcDbLine
 10
1746.898179472296
 20
1195.299044753832
 30
0.0
 11
1746.513172679507
 21
1195.943576370818
 31
0.0
  0
LINE
  5
4B9
330
1E
100
AcDbEntity
  8
_0-0_
100
AcDbLine
 10
1732.139685439839
 20
1200.624773603301
 30
0.0
 11
1730.424836215519
 21
1200.472851133423
 31
0.0
  0
LINE
  5
4BA
330
1E
100
AcDbEntity
  8
_0-0_
100
AcDbLine
 10
1730.424836215519
 20
1200.472851133423
 30
0.0
 11
1728.762091817123
 21
1200.021699811161
 31
0.0
  0
LINE
  5
4BB
330
1E
100
AcDbEntity
  8
_0-0_
100
AcDbLine
 10
1728.762091817123
 20
1200.021699811161
 30
0.0
 11
1727.20197389181
 21
1199.285027641146
 31
0.0
  0
LINE
  5
4BC
330
1E
100
AcDbEntity
  8
_0-0_
100
AcDbLine
 10
1727.20197389181
 20
1199.285027641146
 30
0.0
 11
1725.791885833281
 21
1198.285218034491
 31
0.0
  0
LINE
  5
4BD
330
1E
100
AcDbEntity
  8
_0-0_
100
AcDbLine
 10
1725.791885833281
 20
1198.285218034491
 30
0.0
 11
1724.574672453655
 21
1197.052649700167
 31
0.0
  0
LINE
  5
4BE
330
1E
100
AcDbEntity
  8
_0-0_
100
AcDbLine
 10
1724.574672453655
 20
1197.052649700167
 30
0.0
 11
1723.587318165533
 21
1195.624773603301
 31
0.0
  0
LINE
  5
4BF
330
1E
100
AcDbEntity
  8
_0-0_
100
AcDbLine
 10
1723.587318165533
 20
1195.624773603301
 30
0.0
 11
1722.859823229334
 21
1194.044975036558
 31
0.0
  0
LINE
  5
4C0
330
1E
100
AcDbEntity
  8
_0-0_
100
AcDbLine
 10
1722.859823229334
 20
1194.044975036558
 30
0.0
 11
1722.414292210565
 21
1192.361255379971
 31
0.0
  0
LINE
  5
4C1
330
1E
100
AcDbEntity
  8
_0-0_
100
AcDbLine
 10
1722.414292210565
 20
1192.361255379971
 30
0.0
 11
1722.26426234378
 21
1190.624773603301
 31
0.0
  0
LINE
  5
4C2
330
1E
100
AcDbEntity
  8
_0-0_
100
AcDbLine
 10
1722.26426234378
 20
1190.624773603301
 30
0.0
 11
1722.414292210565
 21
1188.888291826632
 31
0.0
  0
LINE
  5
4C3
330
1E
100
AcDbEntity
  8
_0-0_
100
AcDbLine
 10
1722.414292210565
 20
1188.888291826632
 30
0.0
 11
1722.859823229334
 21
1187.204572170045
 31
0.0
  0
LINE
  5
4C4
330
1E
100
AcDbEntity
  8
_0-0_
100
AcDbLine
 10
1722.859823229334
 20
1187.204572170045
 30
0.0
 11
1723.587318165533
 21
1185.624773603301
 31
0.0
  0
LINE
  5
4C5
330
1E
100
AcDbEntity
  8
_0-0_
100
AcDbLine
 10
1723.587318165533
 20
1185.624773603301
 30
0.0
 11
1724.574672453655
 21
1184.196897506436
 31
0.0
  0
LINE
  5
4C6
330
1E
100
AcDbEntity
  8
_0-0_
100
AcDbLine
 10
1724.574672453655
 20
1184.196897506436
 30
0.0
 11
1725.791885833281
 21
1182.964329172112
 31
0.0
  0
LINE
  5
4C7
330
1E
100
AcDbEntity
  8
_0-0_
100
AcDbLine
 10
1725.791885833281
 20
1182.964329172112
 30
0.0
 11
1727.20197389181
 21
1181.964519565457
 31
0.0
  0
LINE
  5
4C8
330
1E
100
AcDbEntity
  8
_0-0_
100
AcDbLine
 10
1727.20197389181
 20
1181.964519565457
 30
0.0
 11
1728.762091817123
 21
1181.227847395442
 31
0.0
  0
LINE
  5
4C9
330
1E
100
AcDbEntity
  8
_0-0_
100
AcDbLine
 10
1728.762091817123
 20
1181.227847395442
 30
0.0
 11
1730.424836215519
 21
1180.776696073179
 31
0.0
  0
LINE
  5
4CA
330
1E
100
AcDbEntity
  8
_0-0_
100
AcDbLine
 10
1730.424836215519
 20
1180.776696073179
 30
0.0
 11
1732.139685439839
 21
1180.624773603301
 31
0.0
  0
ARC
  5
4CB
330
1E
100
AcDbEntity
  8
_0-0_
100
AcDbCircle
 10
1733.935610626614
 20
1187.770147909907
 30
0.0
 40
15.0
100
AcDbArc
 50
33.01750435764771
 51
88.00000000000004
  0
ARC
  5
4CC
330
1E
100
AcDbEntity
  8
_0-0_
100
AcDbCircle
 10
1733.935610626614
 20
1193.479399296696
 30
0.0
 40
15.0
100
AcDbArc
 50
272.0
 51
326.9824956423498
  0
LINE
  5
4CD
330
1E
100
AcDbEntity
  8
_0-0_
100
AcDbLine
 10
1717.199287021784
 20
1177.573141389453
 30
0.0
 11
1734.459103077151
 21
1178.48853689141
 31
0.0
  0
LINE
  5
4CE
330
1E
100
AcDbEntity
  8
_0-0_
100
AcDbLine
 10
1734.459103077151
 20
1202.761010315194
 30
0.0
 11
1717.199287021784
 21
1203.676405817151
 31
0.0
  0
TEXT
  5
4CF
330
1E
100
AcDbEntity
  8
_0-0_
100
AcDbText
 10
1834.189655172414
 20
1112.624773603302
 30
0.0
 40
16.0
  1
260
 50
90.0
100
AcDbText
  0
TEXT
  5
4D0
330
1E
100
AcDbEntity
  8
_0-0_
100
AcDbText
 10
1420.199287021731
 20
1301.827586206896
 30
0.0
 40
16.0
  1
630
100
AcDbText
  0
LINE
  5
4D1
330
1E
100
AcDbEntity
  8
_0-0_
  6
CENTER2
100
AcDbLine
 10
1748.199287021784
 20
1125.624773603302
 30
0.0
 11
1098.52719665272
 21
1125.624773603302
 31
0.0
  0
LINE
  5
4D2
330
1E
100
AcDbEntity
  8
_0-0_
  6
CENTER2
100
AcDbLine
 10
1098.52719665272
 20
661.4736649830856
 30
0.0
 11
1748.199287021784
 21
661.4736649830858
 31
0.0
  0
TEXT
  5
4D3
330
1E
100
AcDbEntity
  8
_0-0_
100
AcDbText
 10
478.24232488927
 20
438.5162724742214
 30
0.0
 40
12.0
  1
260*420*630mm__
100
AcDbText
  0
TEXT
  5
4D4
330
1E
100
AcDbEntity
  8
_0-0_
100
AcDbText
 10
478.24232488927
 20
598.3111220041664
 30
0.0
 40
12.0
  1
ＳＢ－２０Ｊ
100
AcDbText
  0
LINE
  5
4D5
330
1E
100
AcDbEntity
  8
_0-0_
100
AcDbLine
 10
790.9416316834965
 20
1157.310486678627
 30
0.0
 11
790.9416316834965
 21
1157.310486678627
 31
0.0
  0
LINE
  5
4D6
330
1E
100
AcDbEntity
  8
_0-0_
100
AcDbLine
 10
790.9416316834965
 20
1157.310486678627
 30
0.0
 11
790.0580990413325
 21
1157.208915674309
 31
0.0
  0
LINE
  5
4D7
330
1E
100
AcDbEntity
  8
_0-0_
100
AcDbLine
 10
790.0580990413325
 20
1157.208915674309
 30
0.0
 11
789.2014120914113
 21
1156.907288844922
 31
0.0
  0
LINE
  5
4D8
330
1E
100
AcDbEntity
  8
_0-0_
100
AcDbLine
 10
789.2014120914113
 20
1156.907288844922
 30
0.0
 11
788.397600833202
 21
1156.414770969048
 31
0.0
  0
LINE
  5
4D9
330
1E
100
AcDbEntity
  8
_0-0_
100
AcDbLine
 10
788.397600833202
 20
1156.414770969048
 30
0.0
 11
787.6710886650371
 21
1155.746326953118
 31
0.0
  0
LINE
  5
4DA
330
1E
100
AcDbEntity
  8
_0-0_
100
AcDbLine
 10
787.6710886650371
 20
1155.746326953118
 30
0.0
 11
787.0439502915139
 21
1154.922267130308
 31
0.0
  0
LINE
  5
4DB
330
1E
100
AcDbEntity
  8
_0-0_
100
AcDbLine
 10
787.0439502915139
 20
1154.922267130308
 30
0.0
 11
786.5352409947636
 21
1153.96763014134
 31
0.0
  0
LINE
  5
4DC
330
1E
100
AcDbEntity
  8
_0-0_
100
AcDbLine
 10
786.5352409947636
 20
1153.96763014134
 30
0.0
 11
786.1604176493496
 21
1152.911422148053
 31
0.0
  0
LINE
  5
4DD
330
1E
100
AcDbEntity
  8
_0-0_
100
AcDbLine
 10
786.1604176493496
 20
1152.911422148053
 30
0.0
 11
785.9308690729518
 21
1151.785735495856
 31
0.0
  0
LINE
  5
4DE
330
1E
100
AcDbEntity
  8
_0-0_
100
AcDbLine
 10
785.9308690729518
 20
1151.785735495856
 30
0.0
 11
785.8535699829074
 21
1150.624773604053
 31
0.0
  0
LINE
  5
4DF
330
1E
100
AcDbEntity
  8
_0-0_
100
AcDbLine
 10
785.8535699829074
 20
1150.624773604053
 30
0.0
 11
785.9308690729518
 21
1149.463811712249
 31
0.0
  0
LINE
  5
4E0
330
1E
100
AcDbEntity
  8
_0-0_
100
AcDbLine
 10
785.9308690729518
 20
1149.463811712249
 30
0.0
 11
786.1604176493496
 21
1148.338125060053
 31
0.0
  0
LINE
  5
4E1
330
1E
100
AcDbEntity
  8
_0-0_
100
AcDbLine
 10
786.1604176493496
 20
1148.338125060053
 30
0.0
 11
786.5352409947636
 21
1147.281917066766
 31
0.0
  0
LINE
  5
4E2
330
1E
100
AcDbEntity
  8
_0-0_
100
AcDbLine
 10
786.5352409947636
 20
1147.281917066766
 30
0.0
 11
787.0439502915139
 21
1146.327280077797
 31
0.0
  0
LINE
  5
4E3
330
1E
100
AcDbEntity
  8
_0-0_
100
AcDbLine
 10
787.0439502915139
 20
1146.327280077797
 30
0.0
 11
787.6710886650371
 21
1145.503220254987
 31
0.0
  0
LINE
  5
4E4
330
1E
100
AcDbEntity
  8
_0-0_
100
AcDbLine
 10
787.6710886650371
 20
1145.503220254987
 30
0.0
 11
788.397600833202
 21
1144.834776239058
 31
0.0
  0
LINE
  5
4E5
330
1E
100
AcDbEntity
  8
_0-0_
100
AcDbLine
 10
788.397600833202
 20
1144.834776239058
 30
0.0
 11
789.2014120914113
 21
1144.342258363183
 31
0.0
  0
LINE
  5
4E6
330
1E
100
AcDbEntity
  8
_0-0_
100
AcDbLine
 10
789.2014120914113
 20
1144.342258363183
 30
0.0
 11
790.0580990413325
 21
1144.040631533797
 31
0.0
  0
LINE
  5
4E7
330
1E
100
AcDbEntity
  8
_0-0_
100
AcDbLine
 10
790.0580990413325
 20
1144.040631533797
 30
0.0
 11
790.9416316834965
 21
1143.939060529478
 31
0.0
  0
LINE
  5
4E8
330
1E
100
AcDbEntity
  8
_0-0_
100
AcDbLine
 10
790.9416316834965
 20
1143.939060529478
 30
0.0
 11
791.825164325661
 21
1144.040631533797
 31
0.0
  0
LINE
  5
4E9
330
1E
100
AcDbEntity
  8
_0-0_
100
AcDbLine
 10
791.825164325661
 20
1144.040631533797
 30
0.0
 11
792.6818512755821
 21
1144.342258363183
 31
0.0
  0
LINE
  5
4EA
330
1E
100
AcDbEntity
  8
_0-0_
100
AcDbLine
 10
792.6818512755821
 20
1144.342258363183
 30
0.0
 11
793.4856625337912
 21
1144.834776239058
 31
0.0
  0
LINE
  5
4EB
330
1E
100
AcDbEntity
  8
_0-0_
100
AcDbLine
 10
793.4856625337912
 20
1144.834776239058
 30
0.0
 11
794.2121747019561
 21
1145.503220254987
 31
0.0
  0
LINE
  5
4EC
330
1E
100
AcDbEntity
  8
_0-0_
100
AcDbLine
 10
794.2121747019561
 20
1145.503220254987
 30
0.0
 11
794.8393130754795
 21
1146.327280077797
 31
0.0
  0
LINE
  5
4ED
330
1E
100
AcDbEntity
  8
_0-0_
100
AcDbLine
 10
794.8393130754795
 20
1146.327280077797
 30
0.0
 11
795.3480223722295
 21
1147.281917066766
 31
0.0
  0
LINE
  5
4EE
330
1E
100
AcDbEntity
  8
_0-0_
100
AcDbLine
 10
795.3480223722295
 20
1147.281917066766
 30
0.0
 11
795.7228457176436
 21
1148.338125060053
 31
0.0
  0
LINE
  5
4EF
330
1E
100
AcDbEntity
  8
_0-0_
100
AcDbLine
 10
795.7228457176436
 20
1148.338125060053
 30
0.0
 11
795.9523942940416
 21
1149.463811712249
 31
0.0
  0
LINE
  5
4F0
330
1E
100
AcDbEntity
  8
_0-0_
100
AcDbLine
 10
795.9523942940416
 20
1149.463811712249
 30
0.0
 11
796.0296933840858
 21
1150.624773604053
 31
0.0
  0
LINE
  5
4F1
330
1E
100
AcDbEntity
  8
_0-0_
100
AcDbLine
 10
796.0296933840858
 20
1150.624773604053
 30
0.0
 11
795.9523942940416
 21
1151.785735495856
 31
0.0
  0
LINE
  5
4F2
330
1E
100
AcDbEntity
  8
_0-0_
100
AcDbLine
 10
795.9523942940416
 20
1151.785735495856
 30
0.0
 11
795.7228457176436
 21
1152.911422148053
 31
0.0
  0
LINE
  5
4F3
330
1E
100
AcDbEntity
  8
_0-0_
100
AcDbLine
 10
795.7228457176436
 20
1152.911422148053
 30
0.0
 11
795.3480223722295
 21
1153.96763014134
 31
0.0
  0
LINE
  5
4F4
330
1E
100
AcDbEntity
  8
_0-0_
100
AcDbLine
 10
795.3480223722295
 20
1153.96763014134
 30
0.0
 11
794.8393130754795
 21
1154.922267130308
 31
0.0
  0
LINE
  5
4F5
330
1E
100
AcDbEntity
  8
_0-0_
100
AcDbLine
 10
794.8393130754795
 20
1154.922267130308
 30
0.0
 11
794.2121747019561
 21
1155.746326953118
 31
0.0
  0
LINE
  5
4F6
330
1E
100
AcDbEntity
  8
_0-0_
100
AcDbLine
 10
794.2121747019561
 20
1155.746326953118
 30
0.0
 11
793.4856625337913
 21
1156.414770969048
 31
0.0
  0
LINE
  5
4F7
330
1E
100
AcDbEntity
  8
_0-0_
100
AcDbLine
 10
793.4856625337913
 20
1156.414770969048
 30
0.0
 11
792.6818512755821
 21
1156.907288844922
 31
0.0
  0
LINE
  5
4F8
330
1E
100
AcDbEntity
  8
_0-0_
100
AcDbLine
 10
792.6818512755821
 20
1156.907288844922
 30
0.0
 11
791.825164325661
 21
1157.208915674309
 31
0.0
  0
LINE
  5
4F9
330
1E
100
AcDbEntity
  8
_0-0_
100
AcDbLine
 10
791.825164325661
 20
1157.208915674309
 30
0.0
 11
790.9416316834965
 21
1157.310486678627
 31
0.0
  0
LINE
  5
4FA
330
1E
100
AcDbEntity
  8
_0-0_
100
AcDbLine
 10
790.9416316834965
 20
1157.310486678627
 30
0.0
 11
790.9416316834965
 21
1157.310486678627
 31
0.0
  0
LINE
  5
4FB
330
1E
100
AcDbEntity
  8
_0-0_
100
AcDbLine
 10
785.1565431963178
 20
1157.624773604053
 30
0.0
 11
790.9416316834965
 21
1157.310486678627
 31
0.0
  0
LINE
  5
4FC
330
1E
100
AcDbEntity
  8
_0-0_
100
AcDbLine
 10
785.1565431963178
 20
1143.624773604053
 30
0.0
 11
790.9416316834965
 21
1143.939060529478
 31
0.0
  0
LINE
  5
4FD
330
1E
100
AcDbEntity
  8
_0-0_
100
AcDbLine
 10
785.1565431963178
 20
1157.624773604053
 30
0.0
 11
785.1565431963178
 21
1157.624773604053
 31
0.0
  0
LINE
  5
4FE
330
1E
100
AcDbEntity
  8
_0-0_
100
AcDbLine
 10
785.1565431963178
 20
1157.624773604053
 30
0.0
 11
784.2186286564499
 21
1157.518427875138
 31
0.0
  0
LINE
  5
4FF
330
1E
100
AcDbEntity
  8
_0-0_
100
AcDbLine
 10
784.2186286564499
 20
1157.518427875138
 30
0.0
 11
783.3092121752684
 21
1157.202621949554
 31
0.0
  0
LINE
  5
500
330
1E
100
AcDbEntity
  8
_0-0_
100
AcDbLine
 10
783.3092121752684
 20
1157.202621949554
 30
0.0
 11
782.4559259123672
 21
1156.686951430544
 31
0.0
  0
LINE
  5
501
330
1E
100
AcDbEntity
  8
_0-0_
100
AcDbLine
 10
782.4559259123672
 20
1156.686951430544
 30
0.0
 11
781.68469653906
 21
1155.987084705886
 31
0.0
  0
LINE
  5
502
330
1E
100
AcDbEntity
  8
_0-0_
100
AcDbLine
 10
781.68469653906
 20
1155.987084705886
 30
0.0
 11
781.0189574695948
 21
1155.124286871859
 31
0.0
  0
LINE
  5
503
330
1E
100
AcDbEntity
  8
_0-0_
100
AcDbLine
 10
781.0189574695948
 20
1155.124286871859
 30
0.0
 11
780.4789368487165
 21
1154.124773604053
 31
0.0
  0
LINE
  5
504
330
1E
100
AcDbEntity
  8
_0-0_
100
AcDbLine
 10
780.4789368487165
 20
1154.124773604053
 30
0.0
 11
780.0810429297273
 21
1153.018914607332
 31
0.0
  0
LINE
  5
505
330
1E
100
AcDbEntity
  8
_0-0_
100
AcDbLine
 10
780.0810429297273
 20
1153.018914607332
 30
0.0
 11
779.8373655180112
 21
1151.840310847721
 31
0.0
  0
LINE
  5
506
330
1E
100
AcDbEntity
  8
_0-0_
100
AcDbLine
 10
779.8373655180112
 20
1151.840310847721
 30
0.0
 11
779.7553086284164
 21
1150.624773604053
 31
0.0
  0
LINE
  5
507
330
1E
100
AcDbEntity
  8
_0-0_
100
AcDbLine
 10
779.7553086284164
 20
1150.624773604053
 30
0.0
 11
779.8373655180112
 21
1149.409236360384
 31
0.0
  0
LINE
  5
508
330
1E
100
AcDbEntity
  8
_0-0_
100
AcDbLine
 10
779.8373655180112
 20
1149.409236360384
 30
0.0
 11
780.0810429297273
 21
1148.230632600773
 31
0.0
  0
LINE
  5
509
330
1E
100
AcDbEntity
  8
_0-0_
100
AcDbLine
 10
780.0810429297273
 20
1148.230632600773
 30
0.0
 11
780.4789368487165
 21
1147.124773604053
 31
0.0
  0
LINE
  5
50A
330
1E
100
AcDbEntity
  8
_0-0_
100
AcDbLine
 10
780.4789368487165
 20
1147.124773604053
 30
0.0
 11
781.0189574695948
 21
1146.125260336247
 31
0.0
  0
LINE
  5
50B
330
1E
100
AcDbEntity
  8
_0-0_
100
AcDbLine
 10
781.0189574695948
 20
1146.125260336247
 30
0.0
 11
781.68469653906
 21
1145.26246250222
 31
0.0
  0
LINE
  5
50C
330
1E
100
AcDbEntity
  8
_0-0_
100
AcDbLine
 10
781.68469653906
 20
1145.26246250222
 30
0.0
 11
782.4559259123672
 21
1144.562595777562
 31
0.0
  0
LINE
  5
50D
330
1E
100
AcDbEntity
  8
_0-0_
100
AcDbLine
 10
782.4559259123672
 20
1144.562595777562
 30
0.0
 11
783.3092121752684
 21
1144.046925258551
 31
0.0
  0
LINE
  5
50E
330
1E
100
AcDbEntity
  8
_0-0_
100
AcDbLine
 10
783.3092121752684
 20
1144.046925258551
 30
0.0
 11
784.2186286564499
 21
1143.731119332968
 31
0.0
  0
LINE
  5
50F
330
1E
100
AcDbEntity
  8
_0-0_
100
AcDbLine
 10
784.2186286564499
 20
1143.731119332968
 30
0.0
 11
785.1565431963178
 21
1143.624773604053
 31
0.0
  0
LINE
  5
510
330
1E
100
AcDbEntity
  8
_0-0_
100
AcDbLine
 10
785.1565431963178
 20
1143.624773604053
 30
0.0
 11
785.1956438887344
 21
1143.624957028219
 31
0.0
  0
LINE
  5
511
330
1E
100
AcDbEntity
  8
_0-0_
100
AcDbLine
 10
788.0161027128487
 20
1157.46942210502
 30
0.0
 11
788.0161027128487
 21
1157.46942210502
 31
0.0
  0
LINE
  5
512
330
1E
100
AcDbEntity
  8
_0-0_
100
AcDbLine
 10
788.0161027128487
 20
1157.46942210502
 30
0.0
 11
787.0164522640714
 21
1158.619145217302
 31
0.0
  0
LINE
  5
513
330
1E
100
AcDbEntity
  8
_0-0_
100
AcDbLine
 10
787.0164522640714
 20
1158.619145217302
 30
0.0
 11
785.8782601591674
 21
1159.525963393461
 31
0.0
  0
LINE
  5
514
330
1E
100
AcDbEntity
  8
_0-0_
100
AcDbLine
 10
785.8782601591674
 20
1159.525963393461
 30
0.0
 11
784.6361097892917
 21
1160.162323422089
 31
0.0
  0
LINE
  5
515
330
1E
100
AcDbEntity
  8
_0-0_
100
AcDbLine
 10
784.6361097892917
 20
1160.162323422089
 30
0.0
 11
783.3277432648737
 21
1160.50888982573
 31
0.0
  0
LINE
  5
516
330
1E
100
AcDbEntity
  8
_0-0_
100
AcDbLine
 10
783.3277432648737
 20
1160.50888982573
 30
0.0
 11
781.992914640693
 21
1160.555132359578
 31
0.0
  0
LINE
  5
517
330
1E
100
AcDbEntity
  8
_0-0_
100
AcDbLine
 10
781.992914640693
 20
1160.555132359578
 30
0.0
 11
780.6721820090396
 21
1160.299645967645
 31
0.0
  0
LINE
  5
518
330
1E
100
AcDbEntity
  8
_0-0_
100
AcDbLine
 10
780.6721820090396
 20
1160.299645967645
 30
0.0
 11
779.4056751626028
 21
1159.750193474665
 31
0.0
  0
LINE
  5
519
330
1E
100
AcDbEntity
  8
_0-0_
100
AcDbLine
 10
779.4056751626028
 20
1159.750193474665
 30
0.0
 11
778.2318762710287
 21
1158.923469716601
 31
0.0
  0
LINE
  5
51A
330
1E
100
AcDbEntity
  8
_0-0_
100
AcDbLine
 10
778.2318762710287
 20
1158.923469716601
 30
0.0
 11
777.1864506196664
 21
1157.844594276501
 31
0.0
  0
LINE
  5
51B
330
1E
100
AcDbEntity
  8
_0-0_
100
AcDbLine
 10
777.1864506196664
 20
1157.844594276501
 30
0.0
 11
776.3011629379222
 21
1156.546348238674
 31
0.0
  0
LINE
  5
51C
330
1E
100
AcDbEntity
  8
_0-0_
100
AcDbLine
 10
776.3011629379222
 20
1156.546348238674
 30
0.0
 11
775.6029122440282
 21
1155.068178152036
 31
0.0
  0
LINE
  5
51D
330
1E
100
AcDbEntity
  8
_0-0_
100
AcDbLine
 10
775.6029122440282
 20
1155.068178152036
 30
0.0
 11
775.1129145319866
 21
1153.454997466678
 31
0.0
  0
LINE
  5
51E
330
1E
100
AcDbEntity
  8
_0-0_
100
AcDbLine
 10
775.1129145319866
 20
1153.454997466678
 30
0.0
 11
774.8460581343273
 21
1151.755821861416
 31
0.0
  0
LINE
  5
51F
330
1E
100
AcDbEntity
  8
_0-0_
100
AcDbLine
 10
774.8460581343273
 20
1151.755821861416
 30
0.0
 11
774.810451347657
 21
1150.022279927193
 31
0.0
  0
LINE
  5
520
330
1E
100
AcDbEntity
  8
_0-0_
100
AcDbLine
 10
774.810451347657
 20
1150.022279927193
 30
0.0
 11
775.0071760661707
 21
1148.307044458465
 31
0.0
  0
LINE
  5
521
330
1E
100
AcDbEntity
  8
_0-0_
100
AcDbLine
 10
775.0071760661707
 20
1148.307044458465
 30
0.0
 11
775.4302549088443
 21
1146.662232016997
 31
0.0
  0
LINE
  5
522
330
1E
100
AcDbEntity
  8
_0-0_
100
AcDbLine
 10
775.4302549088443
 20
1146.662232016997
 30
0.0
 11
776.0668328391308
 21
1145.13781939651
 31
0.0
  0
LINE
  5
523
330
1E
100
AcDbEntity
  8
_0-0_
100
AcDbLine
 10
776.0668328391308
 20
1145.13781939651
 30
0.0
 11
776.8975677587429
 21
1143.780125103086
 31
0.0
  0
LINE
  5
524
330
1E
100
AcDbEntity
  8
_0-0_
100
AcDbLine
 10
776.8975677587429
 20
1143.780125103086
 30
0.0
 11
777.8972182075201
 21
1142.630401990804
 31
0.0
  0
LINE
  5
525
330
1E
100
AcDbEntity
  8
_0-0_
100
AcDbLine
 10
777.8972182075201
 20
1142.630401990804
 30
0.0
 11
779.035410312424
 21
1141.723583814644
 31
0.0
  0
LINE
  5
526
330
1E
100
AcDbEntity
  8
_0-0_
100
AcDbLine
 10
779.035410312424
 20
1141.723583814644
 30
0.0
 11
780.2775606822998
 21
1141.087223786016
 31
0.0
  0
LINE
  5
527
330
1E
100
AcDbEntity
  8
_0-0_
100
AcDbLine
 10
780.2775606822998
 20
1141.087223786016
 30
0.0
 11
781.5859272067176
 21
1140.740657382376
 31
0.0
  0
LINE
  5
528
330
1E
100
AcDbEntity
  8
_0-0_
100
AcDbLine
 10
781.5859272067176
 20
1140.740657382376
 30
0.0
 11
782.9207558308983
 21
1140.694414848527
 31
0.0
  0
LINE
  5
529
330
1E
100
AcDbEntity
  8
_0-0_
100
AcDbLine
 10
782.9207558308983
 20
1140.694414848527
 30
0.0
 11
784.2414884625518
 21
1140.949901240461
 31
0.0
  0
LINE
  5
52A
330
1E
100
AcDbEntity
  8
_0-0_
100
AcDbLine
 10
784.2414884625518
 20
1140.949901240461
 30
0.0
 11
785.5079953089886
 21
1141.499353733441
 31
0.0
  0
LINE
  5
52B
330
1E
100
AcDbEntity
  8
_0-0_
100
AcDbLine
 10
785.5079953089886
 20
1141.499353733441
 30
0.0
 11
786.6817942005627
 21
1142.326077491504
 31
0.0
  0
LINE
  5
52C
330
1E
100
AcDbEntity
  8
_0-0_
100
AcDbLine
 10
786.6817942005627
 20
1142.326077491504
 30
0.0
 11
787.727219851925
 21
1143.404952931604
 31
0.0
  0
LINE
  5
52D
330
1E
100
AcDbEntity
  8
_0-0_
100
AcDbLine
 10
787.727219851925
 20
1143.404952931604
 30
0.0
 11
788.0161027128487
 21
1143.780125103086
 31
0.0
  0
LINE
  5
52E
330
1E
100
AcDbEntity
  8
_0-0_
100
AcDbLine
 10
1736.122690426071
 20
600.6950577445552
 30
0.0
 11
1743.005607662284
 21
590.8652332130874
 31
0.0
  0
LINE
  5
52F
330
1E
100
AcDbEntity
  8
_0-0_
100
AcDbLine
 10
1736.122690426071
 20
600.6950577445552
 30
0.0
 11
1746.998383870511
 21
595.6236386036668
 31
0.0
  0
LINE
  5
530
330
1E
100
AcDbEntity
  8
_0-0_
100
AcDbLine
 10
1804.032565094533
 20
543.7119069569534
 30
0.0
 11
1736.122690426071
 21
600.6950577445552
 31
0.0
  0
LINE
  5
531
330
1E
100
AcDbEntity
  8
_0-0_
100
AcDbLine
 10
1804.032565094533
 20
543.7119069569534
 30
0.0
 11
2000.744245089023
 21
543.7119069569534
 31
0.0
  0
TEXT
  5
532
330
1E
100
AcDbEntity
  8
_0-0_
100
AcDbText
 10
1517.027940687334
 20
377.0541552143695
 30
0.0
 40
16.0
  1
（アース線付）
100
AcDbText
  0
TEXT
  5
533
330
1E
100
AcDbEntity
  8
_0-0_
100
AcDbText
 10
1477.944423241911
 20
355.3410899669123
 30
0.0
 40
12.0
  1
条件：電源コンセント：アース端子付
100
AcDbText
  0
TEXT
  5
534
330
1E
100
AcDbEntity
  8
_0-0_
100
AcDbText
 10
1767.615438495464
 20
379.5822049219132
 30
0.0
 40
12.0
  1
SB-20J
100
AcDbText
  0
TEXT
  5
535
330
1E
100
AcDbEntity
  8
_0-0_
100
AcDbText
 10
1767.184575900953
 20
332.1873195256935
 30
0.0
 40
12.0
  1
SB20J-111-0-A
100
AcDbText
  0
LINE
  5
536
330
1E
100
AcDbEntity
  8
_0-0_
100
AcDbLine
 10
1919.0
 20
300.0
 30
0.0
 11
1919.0
 21
348.0
 31
0.0
  0
TEXT
  5
537
330
1E
100
AcDbEntity
  8
_0-0_
100
AcDbText
 10
1923.489012171501
 20
332.2770319711136
 30
0.0
 40
12.0
  1
尺度：
100
AcDbText
  0
TEXT
  5
538
330
1E
100
AcDbEntity
  8
_0-0_
100
AcDbText
 10
1922.29297731569
 20
300.5969092627599
 30
0.0
 40
12.0
  1
検図：
100
AcDbText
  0
TEXT
  5
539
330
1E
100
AcDbEntity
  8
_0-0_
100
AcDbText
 10
1892.608705103969
 20
300.2572400756142
 30
0.0
 40
12.0
  1
山下
100
AcDbText
  0
TEXT
  5
53A
330
1E
100
AcDbEntity
  8
_0-0_
100
AcDbText
 10
1819.921965973535
 20
299.9175708884687
 30
0.0
 40
12.0
  1
2008.1.23
100
AcDbText
  0
CIRCLE
  5
5C1
330
1E
100
AcDbEntity
  8
_0-0_
100
AcDbCircle
 10
1527.723156178821
 20
1230.624773603302
 30
0.0
 40
8.000000000000065
  0
CIRCLE
  5
5C2
330
1E
100
AcDbEntity
  8
_0-0_
100
AcDbCircle
 10
1527.723156178821
 20
1230.624773603302
 30
0.0
 40
8.999999999999946
  0
CIRCLE
  5
5C5
330
1E
100
AcDbEntity
  8
_0-0_
100
AcDbCircle
 10
1547.723156178821
 20
1230.624773603302
 30
0.0
 40
8.999999999999946
  0
CIRCLE
  5
5C6
330
1E
100
AcDbEntity
  8
_0-0_
100
AcDbCircle
 10
1547.723156178821
 20
1230.624773603302
 30
0.0
 40
8.000000000000065
  0
CIRCLE
  5
5C7
330
1E
100
AcDbEntity
  8
_0-0_
100
AcDbCircle
 10
1587.723156178821
 20
1230.624773603302
 30
0.0
 40
8.000000000000065
  0
CIRCLE
  5
5C8
330
1E
100
AcDbEntity
  8
_0-0_
100
AcDbCircle
 10
1587.723156178821
 20
1230.624773603302
 30
0.0
 40
8.999999999999946
  0
CIRCLE
  5
5C9
330
1E
100
AcDbEntity
  8
_0-0_
100
AcDbCircle
 10
1567.723156178821
 20
1230.624773603302
 30
0.0
 40
8.999999999999946
  0
CIRCLE
  5
5CA
330
1E
100
AcDbEntity
  8
_0-0_
100
AcDbCircle
 10
1567.723156178821
 20
1230.624773603302
 30
0.0
 40
8.000000000000065
  0
CIRCLE
  5
5CB
330
1E
100
AcDbEntity
  8
_0-0_
100
AcDbCircle
 10
1627.723156178821
 20
1230.624773603302
 30
0.0
 40
8.000000000000065
  0
CIRCLE
  5
5CC
330
1E
100
AcDbEntity
  8
_0-0_
100
AcDbCircle
 10
1627.723156178821
 20
1230.624773603302
 30
0.0
 40
8.999999999999946
  0
CIRCLE
  5
5CD
330
1E
100
AcDbEntity
  8
_0-0_
100
AcDbCircle
 10
1607.723156178821
 20
1230.624773603302
 30
0.0
 40
8.999999999999946
  0
CIRCLE
  5
5CE
330
1E
100
AcDbEntity
  8
_0-0_
100
AcDbCircle
 10
1607.723156178821
 20
1230.624773603302
 30
0.0
 40
8.000000000000065
  0
ENDSEC
  0
SECTION
  2
OBJECTS
  0
DICTIONARY
  5
C
330
0
100
AcDbDictionary
281
     1
  3
ACAD_COLOR
350
5DC
  3
ACAD_GROUP
350
D
  3
ACAD_LAYOUT
350
19
  3
ACAD_MATERIAL
350
5DB
  3
ACAD_MLINESTYLE
350
16
  3
ACAD_PLOTSETTINGS
350
18
  3
ACAD_PLOTSTYLENAME
350
E
  3
ACDBHEADERROUNDTRIPXREC
350
5E6
  3
AcDbVariableDictionary
350
5D7
  3
ACGREF_MASTER
350
551
  3
ACGREFACAD_MASTER
350
555
  3
AcmDictionary
350
557
  3
ACME_BOM_MANAGER_NAME
350
54A
  3
ACME_COMMAND_HISTORY
350
545
  3
ACME_SCOPE_NAME
350
544
  3
ACMESTATEMGR
350
54F
  3
AcmeSysVarManager
350
546
  3
AcmSystemVariableManager
350
55B
  3
AMG
350
53D
  3
AMGSNAPSETTINGS
350
58C
  3
AMI_MASTER
350
556
  3
DWGPROPS
350
5E5
  0
DICTIONARY
  5
5CF
330
1E
100
AcDbDictionary
280
     1
281
     1
  3
ACAD_INDEX
360
5D0
  0
DICTIONARY
  5
5DC
102
{ACAD_REACTORS
330
C
102
}
330
C
100
AcDbDictionary
281
     1
  0
DICTIONARY
  5
D
102
{ACAD_REACTORS
330
C
102
}
330
C
100
AcDbDictionary
281
     1
  0
DICTIONARY
  5
19
102
{ACAD_REACTORS
330
C
102
}
330
C
100
AcDbDictionary
281
     1
  3
Model
350
21
  3
ﾚｲｱｳﾄ1
350
1D
  0
DICTIONARY
  5
5DB
102
{ACAD_REACTORS
330
C
102
}
330
C
100
AcDbDictionary
281
     1
  0
DICTIONARY
  5
16
102
{ACAD_REACTORS
330
C
102
}
330
C
100
AcDbDictionary
281
     1
  3
Standard
350
17
  0
DICTIONARY
  5
18
102
{ACAD_REACTORS
330
C
102
}
330
C
100
AcDbDictionary
281
     1
  0
ACDBDICTIONARYWDFLT
  5
E
102
{ACAD_REACTORS
330
C
102
}
330
C
100
AcDbDictionary
281
     1
  3
Normal
350
F
100
AcDbDictionaryWithDefault
340
F
  0
DICTIONARY
  5
5E6
102
{ACAD_REACTORS
330
C
102
}
330
C
100
AcDbDictionary
281
     1
  3
COLORDICT
350
5E8
  3
MATERIALDICT
350
5E7
  0
DICTIONARY
  5
5D7
102
{ACAD_REACTORS
330
C
102
}
330
C
100
AcDbDictionary
281
     1
  3
DIMASSOC
350
5D9
  3
INDEXCTL
350
5D8
  3
PROJECTNAME
350
5E3
  0
ACAD_PROXY_OBJECT
  5
551
102
{ACAD_REACTORS
330
C
102
}
330
C
100
AcDbProxyObject
 90
      499
 91
      516
 95
   917527
 70
     0
 93
       34
310
04000042A5
 94
        0
1001
ACAD
1000
AcRTDxfName
1000
ACGREFMASTER
  0
ACAD_PROXY_OBJECT
  5
555
102
{ACAD_REACTORS
330
C
102
}
330
C
100
AcDbProxyObject
 90
      499
 91
      519
 95
   917527
 70
     0
 93
      114
310
04000041C000000000000000000000
 94
        0
1001
ACAD
1000
AcRTDxfName
1000
ACGREFACADMASTER
  0
DICTIONARY
  5
557
102
{ACAD_REACTORS
330
C
102
}
330
C
100
AcDbDictionary
281
     1
  3
AcmBOMDATA
350
558
  3
AcmStdDictionary
350
55D
  0
ACAD_PROXY_OBJECT
  5
54A
102
{ACAD_REACTORS
330
C
102
}
330
C
100
AcDbProxyObject
 90
      499
 91
      510
 95
   917527
 70
     0
 93
       50
310
00000040400013
330
0
330
0
330
54B
 94
        0
1001
ACAD
1000
AcRTDxfName
1000
ACMEDRAWINGMAN
  0
ACAD_PROXY_OBJECT
  5
545
102
{ACAD_REACTORS
330
C
102
}
330
C
100
AcDbProxyObject
 90
      499
 91
      506
 95
   917527
 70
     0
 93
     1876
310
4780504554E444F80504554E444F80505584C494E4580505584C494E4580504554E444F80504554E444F80504554E444F80504554E444F80505584C494E4580505584C494E4580505584C494E4580505584C494E4580505584C494E4580504554E444F80506434952434C4580506434952434C458050545524153458050545
310
5241534580504434F50598050155805015580505455241534580504434F505940405184D5347202D20436F6D6D616E642043414E43454C4C45442E014110D3D4166014110D3D4166014110D3D4166014151549054D16014151549054D16014151549054D160141141313D520
 94
        0
1001
ACAD
1000
AcRTDxfName
1000
ACMECOMMANDHISTORY
  0
ACAD_PROXY_OBJECT
  5
544
102
{ACAD_REACTORS
330
C
102
}
330
C
100
AcDbProxyObject
 90
      499
 91
      505
 95
   917527
 70
     0
 93
      202
310
06000044400000000000000000001054220000000000AAAAAAA1
360
547
360
548
360
549
360
54B
360
55C
 94
        0
1001
ACAD
1000
AcRTDxfName
1000
ACMESCOPE
  0
ACAD_PROXY_OBJECT
  5
54F
102
{ACAD_REACTORS
330
C
102
}
330
C
100
AcDbProxyObject
 90
      499
 91
      515
 95
   917527
 70
     0
 93
       50
310
06000041641280
 94
        0
1001
ACAD
1000
AcRTDxfName
1000
ACMESTATEMGR
  0
ACAD_PROXY_OBJECT
  5
546
102
{ACAD_REACTORS
330
C
102
}
330
C
100
AcDbProxyObject
 90
      499
 91
      507
 95
   917527
 70
     0
 93
       48
310
903422000000F8
330
547
330
548
330
549
 94
        0
1001
ACAD
1000
AcRTDxfName
1000
ACIMSYSVARMAN
  0
ACAD_PROXY_OBJECT
  5
55B
102
{ACAD_REACTORS
330
C
102
}
330
C
100
AcDbProxyObject
 90
      499
 91
      507
 95
   917527
 70
     0
 93
       32
310
90142200F5
330
55C
 94
        0
1001
ACAD
1000
AcRTDxfName
1000
ACIMSYSVARMAN
  0
DICTIONARY
  5
53D
102
{ACAD_REACTORS
330
C
102
}
330
C
100
AcDbDictionary
281
     1
  3
AcMgSettings
350
53E
  3
AMGLAYCFG
350
55F
  0
DICTIONARY
  5
58C
102
{ACAD_REACTORS
330
C
102
}
330
C
100
AcDbDictionary
281
     1
  3
DIMENSION
350
591
  3
FEA
350
590
  3
HATCH (1)
350
58D
  3
HATCH (2)
350
58E
  3
SIMPLE WELD
350
592
  3
SYMBOLS
350
58F
  0
ACAD_PROXY_OBJECT
  5
556
102
{ACAD_REACTORS
330
C
102
}
330
C
100
AcDbProxyObject
 90
      499
 91
      520
 95
   917527
 70
     0
 93
       34
310
05000042A5
 94
        0
1001
ACAD
1000
AcRTDxfName
1000
AMIMASTER
  0
XRECORD
  5
5E5
102
{ACAD_REACTORS
330
C
102
}
330
C
100
AcDbXrecord
280
     1
  1
DWGPROPS COOKIE
  2

  3

  4

  6

  7

  8

  9

300
AmdtFileType=84
301
=
302
=
303
=
304
=
305
=
306
=
307
=
308
=
309
=
 40
0.0027551967592593
 41
2456108.628848056
 42
2456273.671471331
  1

 90
        1
  0
DICTIONARY
  5
5D0
102
{ACAD_REACTORS
330
5CF
102
}
330
5CF
100
AcDbDictionary
281
     1
  3
*A1
350
5D1
  0
LAYOUT
  5
21
102
{ACAD_XDICTIONARY
360
5EB
102
}
102
{ACAD_REACTORS
330
19
102
}
330
19
100
AcDbPlotSettings
  1

  2
PrimoPDF
  4
A3
  6

 40
3.174999952316284
 41
3.174999952316284
 42
3.17498779296875
 43
3.17498779296875
 44
297.0106506347656
 45
419.9889831542968
 46
0.0
 47
0.0
 48
336.3235096784401
 49
244.8271344088253
140
2023.340580513318
141
1424.772135210013
142
1.0
143
4.078476859191509
 70
 11952
 72
     1
 73
     1
 74
     4
  7
acad.stb
 75
     0
147
0.2451895730991676
148
-336.3235096784401
149
-244.8271344088253
100
AcDbLayout
  1
Model
 70
     1
 71
     0
 10
0.0
 20
0.0
 11
12.0
 21
9.0
 12
0.0
 22
0.0
 32
0.0
 14
0.0
 24
0.0
 34
0.0
 15
0.0
 25
0.0
 35
0.0
146
0.0
 13
0.0
 23
0.0
 33
0.0
 16
1.0
 26
0.0
 36
0.0
 17
0.0
 27
1.0
 37
0.0
 76
     0
330
1E
  0
LAYOUT
  5
1D
102
{ACAD_XDICTIONARY
360
5E9
102
}
102
{ACAD_REACTORS
330
19
102
}
330
19
100
AcDbPlotSettings
  1

  2
C:\Program Files\MDT6\plotters\NEC MultiWriter2150.pc3
  4

  6

 40
0.0
 41
0.0
 42
0.0
 43
0.0
 44
0.0
 45
0.0
 46
0.0
 47
0.0
 48
0.0
 49
0.0
140
0.0
141
0.0
142
1.0
143
1.0
 70
   688
 72
     0
 73
     0
 74
     5
  7
acad.stb
 75
    16
147
1.0
148
0.0
149
0.0
100
AcDbLayout
  1
ﾚｲｱｳﾄ1
 70
     1
 71
     1
 10
0.0
 20
0.0
 11
12.0
 21
9.0
 12
0.0
 22
0.0
 32
0.0
 14
1.000000000000000E+20
 24
1.000000000000000E+20
 34
1.000000000000000E+20
 15
-1.000000000000000E+20
 25
-1.000000000000000E+20
 35
-1.000000000000000E+20
146
0.0
 13
0.0
 23
0.0
 33
0.0
 16
1.0
 26
0.0
 36
0.0
 17
0.0
 27
1.0
 37
0.0
 76
     0
330
1A
  0
MLINESTYLE
  5
17
102
{ACAD_REACTORS
330
16
102
}
330
16
100
AcDbMlineStyle
  2
STANDARD
 70
     0
  3

 62
   256
 51
90.0
 52
90.0
 71
     2
 49
0.5
 62
   256
  6
BYLAYER
 49
-0.5
 62
   256
  6
BYLAYER
  0
ACDBPLACEHOLDER
  5
F
102
{ACAD_REACTORS
330
E
102
}
330
E
  0
XRECORD
  5
5E8
102
{ACAD_REACTORS
330
5E6
102
}
330
5E6
100
AcDbXrecord
280
     1
340
5DC
  0
XRECORD
  5
5E7
102
{ACAD_REACTORS
330
5E6
102
}
330
5E6
100
AcDbXrecord
280
     1
340
5DB
  0
DICTIONARYVAR
  5
5D9
102
{ACAD_REACTORS
330
5D7
102
}
330
5D7
100
DictionaryVariables
280
     0
  1
1
  0
DICTIONARYVAR
  5
5D8
102
{ACAD_REACTORS
330
5D7
102
}
330
5D7
100
DictionaryVariables
280
     0
  1
1
  0
DICTIONARYVAR
  5
5E3
102
{ACAD_REACTORS
330
5D7
102
}
330
5D7
100
DictionaryVariables
280
     0
  1

  0
ACAD_PROXY_OBJECT
  5
558
102
{ACAD_REACTORS
330
557
102
}
330
557
100
AcDbProxyObject
 90
      499
 91
      521
 95
   917527
 70
     0
 93
      118
310
405010040CA904C415CD5B07571028
350
559
 94
        0
1001
ACAD
1000
AcRTDxfName
1000
ACMDATADICTIONARY
  0
DICTIONARY
  5
55D
102
{ACAD_REACTORS
330
557
102
}
330
557
100
AcDbDictionary
281
     1
  3
ANSI
350
55E
  0
ACAD_PROXY_OBJECT
  5
547
330
0
100
AcDbProxyObject
 90
      499
 91
      508
 95
   917527
 70
     0
 93
      156
310
00010143D050D351505391D5531054925390D494
330
544
 94
        0
1001
ACAD
1000
AcRTDxfName
1000
ACIMREALSYSVAR
  0
ACAD_PROXY_OBJECT
  5
548
330
0
100
AcDbProxyObject
 90
      499
 91
      508
 95
   917527
 70
     0
 93
      148
310
000101439050D351531253915054925390D490
330
544
 94
        0
1001
ACAD
1000
AcRTDxfName
1000
ACIMREALSYSVAR
  0
ACAD_PROXY_OBJECT
  5
549
330
0
100
AcDbProxyObject
 90
      499
 91
      509
 95
   917527
 70
     0
 93
      156
310
000101439050D35154D6535093D314D256915084
330
544
 94
        0
1001
ACAD
1000
AcRTDxfName
1000
ACIMINTSYSVAR
  0
ACAD_PROXY_OBJECT
  5
54B
330
0
100
AcDbProxyObject
 90
      499
 91
      511
 95
   917527
 70
     0
 93
      120
310
000101422565255A6557080C402B0000
330
544
330
0
330
0
 94
        0
1001
ACAD
1000
AcRTDxfName
1000
ACMEVIEW
  0
ACAD_PROXY_OBJECT
  5
55C
330
0
100
AcDbProxyObject
 90
      499
 91
      523
 95
   917527
 70
     0
 93
      148
310
00010142105350D55494D51100504414E53490
330
544
 94
        0
1001
ACAD
1000
AcRTDxfName
1000
ACIMSTRSYSVAR
  0
DICTIONARY
  5
53E
102
{ACAD_REACTORS
330
53D
102
}
330
53D
100
AcDbDictionary
281
     1
  3
DWGSETTINGS
350
53F
  3
TRANSSETTINGS
350
540
  0
ACAD_PROXY_OBJECT
  5
55F
102
{ACAD_REACTORS
330
53D
102
}
330
53D
100
AcDbProxyObject
 90
      499
 91
      525
 95
   917527
 70
     0
 93
    12922
310
41103491013041105357CC10747A404C504414D5F314391E9013241105357CC90547A404CD04414D5F334190F9013441105357CD10343E404D504414D5F3540D0F9013641105357CD90247A404DD04414D5F374110F9013841105357CE10143E404E504414D5F397F641102324141505357CC4C10747A408D10505414D5F31
310
3140D0F902495041505357CC4C90747902408C13905414D5F304E41D1E902314E41505357CC5390E47A408C93905414D5F324E4151E902334E41505357CCD390643E408D13905414D5F344E40D0F902354E41505357CD5390343E408D93905414D5F364E4091E902374E41505357CDD390443E408E13905414D5F384E4050F
310
902394E41505357CE539FD90440CC9053906414D5F31304E41D1E90334414E41905357CC4C5390343E40D25413906414D5F31324E41D1E409044B4C494E41505357D0D310143D094112539193D08414D5F50415245464110F42D055241484D3541905357D093D4907479094115925155D08414D5F56494557534050F42D064
310
24548494E4441905357D253959FD90D415514905253105414D5F545240D0F4250348494441905357D2125110743D0940D59254D06414D5F56495341D1E4250650415244494D42505357D4105491125350343D0941949151911253509414D5F52454644494D4110F42553411092139590139CFFFFFFFF415092139594D06424
310
548494E44CFFFFFFFF411093D48C9055241484D354050F411093D48CD055241484D354091E411093D48D5055241484D35CFFFFFFFF4110D0530C90134CFFFFFFFF4110D0530CD01344091E4110D0530D5013441D1E4110D0530DD01344793C4110D1539390137CFFFFFFFF4110D15395D0137CFFFFFFFF4110D312539044B4
310
C494ECFFFFFFFF4110D3D38C50130CFFFFFFFF4110D3D38C90131CFFFFFFFF4110D3D38CD0132CFFFFFFFF4110D3D38D10132CFFFFFFFF411111551050134CFFFFFFFF4111125051D0135CFFFFFFFF411112531250135CFFFFFFFF411112535410650415244494DCFFFFFFFF411112535490652454644494DCFFFFFFFF4111
310
91535390138CFFFFFFFF4151915354139013840CFFFFFFFF4151915354D41023441CFFFFFFFF4151915354D5102344140D0F41519153559390132CFFFFFFFF4151915355951013240D0F4112105510D0138CFFFFFFFF411212511390133CFFFFFFFF4112125115D0133CFFFFFFFF411213125390134CFFFFFFFF411213D0D3
310
90137CFFFFFFFF411213D0D5D0137CFFFFFFFF4112539193D04494E464FCFFFFFFFF411311505110135CFFFFFFFF419397D0921395902394ECFFFFFFFF419397D0D3D38C502304ECFFFFFFFF419397D0D3D38C902314ECFFFFFFFF419397D0D3D38CD02324ECFFFFFFFF419397D0D3D38D102324ECFFFFFFFF419397D0D153
310
93902374ECFFFFFFFF419397D0D15395D02374ECFFFFFFFF419397D1125312502354ECFFFFFFFF419397D2105510D02384ECFFFFFFFF419397D2125113902334ECFFFFFFFF419397D2125115D02334ECFFFFFFFF419397D3115051102354ECFFFFFFFF419397D391D25410349504ECFFFFFFFF419397D412105390334414EC
310
FFFFFFFF419397D510D3D3902304ECFFFFFFFF419397D5121312502344ECFFFFFFFF419397D5131153902304ECFFFFFFFF419397D594131250332414ECFFFFFFFF411391D2541024950CFFFFFFFF411410530C9055241484D354050F411410530CD055241484D354091E411410530D5055241484D35CFFFFFFFF4114121053
310
9023441CFFFFFFFF411413D4D390135CFFFFFFFF411490D1D390137CFFFFFFFF411490D1D5D0137CFFFFFFFF4114D09492D013441D1E4114D150D510134CFFFFFFFF4114D6508CD01354091E411354D653501354091E411510D3D390130CFFFFFFFF411512131250134CFFFFFFFF411512550C9055241484D354050F411512
310
550CD055241484D354091E411512550D5055241484D35CFFFFFFFF411513115390130CFFFFFFFF415514905253105545241494CCFFFFFFFF411514931250134CFFFFFFFF411516150C5013640D0F411516150C9013640D0F411516150CD0136CFFFFFFFF411516150D5013641D1E411516150DD01364793C4115925155D045
310
6494557CFFFFFFFF4115915112103484944CFFFFFFFF4115915115903564953CFFFFFFFF41159413125023241CFFFFFFFF411692569050134CFFFFFFFFAA9FD404FE4290E479074790643D054790443D0343D024790143D1E4F1FD80
340
15
340
15
340
15
340
569
340
15
340
15
340
15
340
56A
340
15
340
15
340
56A
340
28
340
15
340
15
340
15
340
15
340
569
340
15
340
15
340
15
340
56A
340
15
340
15
340
56A
340
28
340
15
340
563
340
15
340
15
340
15
340
15
340
15
340
569
340
15
340
15
340
15
340
14
340
14
340
14
340
14
340
14
340
14
340
14
340
14
340
14
340
26
340
14
340
14
340
14
340
14
340
14
340
14
340
14
340
14
340
14
340
14
340
14
340
14
340
14
340
15
340
14
340
14
340
14
340
14
340
56B
340
14
340
14
340
26
340
14
340
14
340
14
340
14
340
14
340
14
340
14
340
14
340
26
340
14
340
14
340
14
340
56B
340
14
340
14
340
14
340
14
340
14
340
56B
340
14
340
28
340
14
340
14
340
14
340
14
340
14
340
14
340
26
340
14
340
14
340
14
340
14
340
14
340
14
340
56B
340
14
340
14
340
14
340
14
340
14
340
14
340
14
340
14
340
14
340
14
340
14
340
14
340
14
340
14
340
28
340
56C
 94
        0
1001
ACAD
1000
AcRTDxfName
1000
AMGOBJPROPCFG
  0
ACAD_PROXY_OBJECT
  5
591
102
{ACAD_REACTORS
330
58C
102
}
330
58C
100
AcDbProxyObject
 90
      499
 91
      540
 95
   917527
 70
     0
 93
      253
310
43D1444494D454E53494F4E2C414D44545F2A5F44494D404A9012A404A9012A8
 94
        0
1001
ACAD
1000
AcRTDxfName
1000
ACAMGFILTERDAT
  0
ACAD_PROXY_OBJECT
  5
590
102
{ACAD_REACTORS
330
58C
102
}
330
58C
100
AcDbProxyObject
 90
      499
 91
      540
 95
   917527
 70
     0
 93
      181
310
43D012A42D05357D191504B505357CA9012A404A9012AC
 94
        0
1001
ACAD
1000
AcRTDxfName
1000
ACAMGFILTERDAT
  0
ACAD_PROXY_OBJECT
  5
58D
102
{ACAD_REACTORS
330
58C
102
}
330
58C
100
AcDbProxyObject
 90
      499
 91
      540
 95
   917527
 70
     0
 93
      133
310
43D054841544348404A9012A404A9012A8
 94
        0
1001
ACAD
1000
AcRTDxfName
1000
ACAMGFILTERDAT
  0
ACAD_PROXY_OBJECT
  5
58E
102
{ACAD_REACTORS
330
58C
102
}
330
58C
100
AcDbProxyObject
 90
      499
 91
      540
 95
   917527
 70
     0
 93
      549
310
43D044C494E4549CE0B0E138B0A8B4E0B0A8B4E138B105357CE0B105357CE138B0A8B505357CE0B0A8B505357CE139012A404A910494E534552542C5354445041525432448
 94
        0
1001
ACAD
1000
AcRTDxfName
1000
ACAMGFILTERDAT
  0
ACAD_PROXY_OBJECT
  5
592
102
{ACAD_REACTORS
330
58C
102
}
330
58C
100
AcDbProxyObject
 90
      499
 91
      540
 95
   917527
 70
     0
 93
      181
310
43D0341524341105357CD5012A404C906494E534552544
 94
        0
1001
ACAD
1000
AcRTDxfName
1000
ACAMGFILTERDAT
  0
ACAD_PROXY_OBJECT
  5
58F
102
{ACAD_REACTORS
330
58C
102
}
330
58C
100
AcDbProxyObject
 90
      499
 91
      540
 95
   917527
 70
     0
 93
     1053
310
43D7841434D46434652414D452C41434D444154554D5441524745542C41434D444154554D49442C41434D57454C4453594D2C41434D5355524653594D2C41434D4645415449442C41434D504152545245462C41434D42414C4C4F4F4E2C414D44544544474553594D2C414D47534352455743414C435441424C45404A9012A
310
404A9012AB
 94
        0
1001
ACAD
1000
AcRTDxfName
1000
ACAMGFILTERDAT
  0
LAYER_INDEX
  5
5D1
102
{ACAD_REACTORS
330
5D0
102
}
330
5D0
100
AcDbIndex
 40
2456273.671471331
100
AcDbLayerIndex
  8
0
360
5D2
 90
        0
  8
_0-0_
360
5D3
 90
     1159
  8
ADD_LINE
360
5D4
 90
        0
  8
AM_CL
360
5D5
 90
        0
  0
DICTIONARY
  5
5EB
330
21
100
AcDbDictionary
280
     1
281
     1
  3
ACAD_XREC_ROUNDTRIP
360
5EC
  0
DICTIONARY
  5
5E9
330
1D
100
AcDbDictionary
280
     1
281
     1
  3
ACAD_XREC_ROUNDTRIP
360
5EA
  0
ACAD_PROXY_OBJECT
  5
559
102
{ACAD_REACTORS
330
558
102
}
330
558
100
AcDbProxyObject
 90
      499
 91
      522
 95
   917527
 70
     0
 93
      139
310
057356C1D5C406406AA8FFFFFFFF0AE24051
330
1E
330
0
330
0
 94
        0
1001
ACAD
1000
AcRTDxfName
1000
ACMDATAENTRYBLOCK
  0
ACAD_PROXY_OBJECT
  5
55E
102
{ACAD_REACTORS
330
55D
102
}
330
55D
100
AcDbProxyObject
 90
      499
 91
      524
 95
   917527
 70
     0
 93
     2109
310
570B81E85EB51B8BE3FD04414E5349405901409022E07A17AD46E2F8FD2208721C82C6DAA6EAE4CCA8CAF0E8A6E8C88120284A0B1B6A321A329BA3220480A1A82C6DAAECAD8C8D2DCCEA6E8C8812028420B1B6A4B229BA3220480A1682C6DA88C2E8EADAA6E8C88120284A0B1B6A127A6A9BA3220480A2082DAC8E888CAE8C
310
2D2D8A6F2DAA6E8C88120288A0B6B23A29B2B1BA34B7B729BCB6A9BA3220480A2282DAC8E886CADCE8CAE498D2DCCAA6E8C88120285A0B6B23A2737BA32A9BA3220480A1682C682DACE98C2F2A6E8C88120285A0B1A0B6B3A234B6A9BA3220480A2282C682DACE90DED8CA86D0C2E4E8A6E8C88120286A0B1A0B6B3AA34BA3
310
632A9BA3220480A02811
340
56D
360
56E
360
56F
360
570
360
571
360
572
360
573
360
574
360
575
360
576
360
577
360
57D
360
57E
360
589
360
58A
 94
        0
1001
ACAD
1000
AcRTDxfName
1000
ACMSTANDARDANSI
  0
ACAD_PROXY_OBJECT
  5
53F
102
{ACAD_REACTORS
330
53E
102
}
330
53E
100
AcDbProxyObject
 90
      499
 91
      503
 95
   917527
 70
     0
 93
     2468
310
4050B44574753455454494E4753A1286829C8E82A4A482B282A106660F8686AF86C608321A2A720A723A0A849A1ABE1C983E18999AA0C868A9C889282940000000000001C07E83A1A2A72224A0A9A0A8598171ABE1897183E18971AA0E868A9C8892A6A8940000000000001807E8321A2A72622A7250000000000000701FA0
310
C868A9C9E8C8C940000000000001C07E84A1A624A720A92920ACA0A87181718991ABE1817191ABE18171AA108698929C8AA8B2A082A0AB098929C8A84A22BA3AAA9A1A0A622A50A0E9882A6A89E849482A02608426A0A5A2AB24A2ABA7E8120CA0A68682988A0C00800010652455649534941501304154D0D0531150540CC4
310
E8C50954494D455354414D504A0C99468524330734141D5915494D253D3905414C4D4B8C0C1107B44574753455454494E4753454E447D0
 94
        0
1001
ACAD
1000
AcRTDxfName
1000
AMGSETTINGSOBJ
  0
ACAD_PROXY_OBJECT
  5
540
102
{ACAD_REACTORS
330
53E
102
}
330
53E
100
AcDbProxyObject
 90
      499
 91
      503
 95
   917527
 70
     0
 93
      852
310
4050D5452414E5353455454494E4753A2488A482AE929C8EA8A4829CA69882A8929E9C0C00800050D4F524947494E414C4C595F4F4E0600400008529A7AAA921A2A620A723A0A81A2A72AA12AAA0A48AA68AA4AC8A0C0080001107B44574753455454494E4753454E447D0
 94
        0
1001
ACAD
1000
AcRTDxfName
1000
AMGSETTINGSOBJ
  0
IDBUFFER
  5
5D2
330
0
100
AcDbIdBuffer
  0
IDBUFFER
  5
5D3
330
0
100
AcDbIdBuffer
330
4A
330
4B
330
4C
330
4D
330
4E
330
4F
330
50
330
51
330
52
330
53
330
54
330
55
330
56
330
57
330
58
330
59
330
5A
330
5B
330
5C
330
5D
330
5E
330
5F
330
60
330
61
330
62
330
63
330
64
330
65
330
66
330
67
330
68
330
69
330
6A
330
6B
330
6C
330
6D
330
6E
330
6F
330
70
330
71
330
72
330
73
330
74
330
75
330
76
330
77
330
78
330
79
330
7A
330
7B
330
7C
330
7D
330
7E
330
7F
330
80
330
81
330
82
330
83
330
84
330
85
330
86
330
87
330
88
330
89
330
8A
330
8B
330
8C
330
8D
330
8E
330
8F
330
90
330
91
330
92
330
93
330
94
330
95
330
96
330
97
330
98
330
99
330
9A
330
9B
330
9C
330
9D
330
9E
330
9F
330
A0
330
A1
330
A2
330
A3
330
A4
330
A5
330
A6
330
A7
330
A8
330
A9
330
AA
330
AB
330
AC
330
AD
330
AE
330
AF
330
B0
330
B1
330
B2
330
B3
330
B4
330
B5
330
B6
330
B7
330
B8
330
B9
330
BA
330
BB
330
BC
330
BD
330
BE
330
BF
330
C0
330
C1
330
C2
330
C3
330
C5
330
C6
330
C7
330
C8
330
C9
330
CA
330
CB
330
CC
330
CD
330
CE
330
CF
330
D0
330
D1
330
D2
330
D3
330
D4
330
D5
330
D6
330
D7
330
D8
330
D9
330
DA
330
DB
330
DC
330
DD
330
DE
330
DF
330
E0
330
E1
330
E2
330
E3
330
E4
330
E5
330
E6
330
E7
330
E8
330
E9
330
EA
330
EB
330
EC
330
ED
330
EE
330
EF
330
F0
330
F1
330
F2
330
F3
330
F4
330
F5
330
F6
330
F7
330
F8
330
F9
330
FA
330
FB
330
FC
330
FD
330
FE
330
FF
330
100
330
101
330
102
330
103
330
104
330
105
330
106
330
107
330
108
330
109
330
10A
330
10B
330
10C
330
10D
330
10E
330
10F
330
110
330
111
330
112
330
113
330
114
330
115
330
116
330
117
330
118
330
119
330
11A
330
11B
330
11C
330
11D
330
11E
330
11F
330
120
330
121
330
122
330
123
330
124
330
125
330
126
330
127
330
128
330
129
330
12A
330
12B
330
12C
330
12D
330
12E
330
12F
330
130
330
131
330
132
330
133
330
134
330
135
330
136
330
137
330
138
330
139
330
13A
330
13B
330
13C
330
13D
330
13E
330
13F
330
140
330
141
330
142
330
143
330
144
330
145
330
146
330
147
330
148
330
149
330
14A
330
14B
330
14C
330
14D
330
14E
330
14F
330
150
330
151
330
152
330
153
330
154
330
155
330
156
330
157
330
158
330
159
330
15A
330
15B
330
15C
330
15D
330
15E
330
15F
330
160
330
161
330
162
330
163
330
164
330
165
330
166
330
167
330
168
330
169
330
16A
330
16B
330
16C
330
16D
330
16E
330
16F
330
170
330
171
330
172
330
173
330
174
330
175
330
176
330
177
330
178
330
179
330
17A
330
17B
330
17C
330
17D
330
17E
330
1AC
330
1AD
330
1AE
330
1AF
330
1B0
330
1B1
330
1B2
330
1B3
330
1B4
330
1B5
330
1B6
330
1B7
330
1B8
330
1B9
330
1BA
330
1BB
330
1BC
330
1BD
330
1BE
330
1BF
330
1C0
330
1C1
330
1C2
330
1C3
330
1C4
330
1C5
330
1C6
330
1C7
330
1C8
330
1C9
330
1CE
330
1D1
330
1D2
330
1D3
330
1D4
330
1D5
330
1D6
330
1D7
330
1D8
330
1D9
330
1DA
330
1DB
330
1DC
330
1DD
330
1DE
330
1DF
330
1E0
330
1E1
330
1E2
330
1E3
330
1E4
330
1E5
330
1E6
330
1E7
330
1E8
330
1E9
330
1EA
330
1EB
330
1EC
330
1ED
330
1EE
330
1EF
330
1F0
330
1F2
330
1F3
330
1F4
330
1F5
330
1F6
330
1F7
330
1F8
330
1F9
330
1FA
330
1FB
330
1FC
330
1FD
330
1FE
330
1FF
330
200
330
201
330
202
330
203
330
204
330
205
330
206
330
207
330
208
330
209
330
20A
330
20B
330
20C
330
20D
330
20E
330
20F
330
210
330
211
330
212
330
213
330
214
330
215
330
216
330
217
330
218
330
219
330
21A
330
21B
330
21C
330
21D
330
21E
330
21F
330
220
330
221
330
222
330
223
330
224
330
227
330
228
330
229
330
22A
330
22B
330
22C
330
22D
330
22E
330
22F
330
230
330
231
330
232
330
233
330
234
330
235
330
236
330
237
330
238
330
239
330
23A
330
23B
330
23C
330
23D
330
23E
330
23F
330
240
330
241
330
242
330
243
330
244
330
245
330
246
330
247
330
248
330
249
330
24A
330
24B
330
24C
330
24D
330
24E
330
24F
330
250
330
251
330
252
330
253
330
254
330
255
330
256
330
257
330
258
330
259
330
25A
330
25B
330
25C
330
25D
330
25E
330
25F
330
260
330
261
330
262
330
263
330
264
330
265
330
266
330
267
330
268
330
269
330
26A
330
26B
330
26C
330
26D
330
26E
330
26F
330
270
330
271
330
272
330
273
330
274
330
275
330
276
330
277
330
278
330
279
330
27A
330
27B
330
27C
330
27D
330
27E
330
27F
330
280
330
281
330
282
330
283
330
284
330
285
330
286
330
287
330
288
330
289
330
28A
330
28B
330
28C
330
28D
330
28E
330
28F
330
290
330
291
330
292
330
293
330
294
330
295
330
296
330
297
330
298
330
299
330
29A
330
29B
330
29C
330
29D
330
29E
330
29F
330
2A0
330
2A1
330
2A2
330
2A3
330
2A4
330
2A5
330
2A6
330
2A7
330
2A8
330
2A9
330
2AA
330
2AB
330
2AC
330
2AD
330
2AE
330
2AF
330
2B0
330
2B1
330
2B2
330
2B3
330
2B4
330
2B5
330
2B6
330
2B7
330
2B8
330
2B9
330
2BA
330
2BB
330
2BC
330
2BD
330
2BE
330
2BF
330
2C0
330
2C1
330
2C2
330
2C3
330
2C4
330
2C5
330
2C6
330
2C7
330
2C8
330
2C9
330
2CA
330
2CB
330
2CC
330
2CD
330
2CE
330
2CF
330
2D0
330
2D1
330
2D2
330
2D3
330
2D4
330
2D5
330
2D6
330
2D7
330
2D8
330
313
330
315
330
319
330
31A
330
31B
330
31C
330
31D
330
31E
330
31F
330
320
330
322
330
323
330
324
330
325
330
326
330
327
330
328
330
329
330
32A
330
32B
330
32C
330
32D
330
32E
330
32F
330
330
330
331
330
332
330
333
330
334
330
335
330
336
330
337
330
338
330
339
330
33A
330
33B
330
33C
330
33D
330
33E
330
33F
330
340
330
341
330
342
330
343
330
344
330
345
330
346
330
347
330
348
330
349
330
34A
330
34B
330
34C
330
34D
330
34E
330
34F
330
350
330
351
330
352
330
353
330
354
330
355
330
356
330
357
330
358
330
359
330
35A
330
35B
330
35C
330
35D
330
35E
330
35F
330
360
330
361
330
362
330
363
330
364
330
365
330
366
330
367
330
368
330
369
330
36A
330
36B
330
36C
330
36D
330
36E
330
36F
330
370
330
371
330
372
330
373
330
374
330
375
330
376
330
377
330
378
330
379
330
37A
330
37B
330
37C
330
37D
330
37E
330
37F
330
380
330
381
330
382
330
383
330
384
330
385
330
386
330
387
330
388
330
389
330
38A
330
38B
330
38C
330
38D
330
38E
330
38F
330
390
330
391
330
392
330
393
330
394
330
395
330
396
330
397
330
398
330
399
330
39A
330
39B
330
39C
330
39D
330
39E
330
39F
330
3A0
330
3A1
330
3A2
330
3A3
330
3A4
330
3A5
330
3A6
330
3A7
330
3A8
330
3A9
330
3AA
330
3AB
330
3AC
330
3AD
330
3AE
330
3AF
330
3B0
330
3B1
330
3B2
330
3B3
330
3B4
330
3B5
330
3B6
330
3B7
330
3B8
330
3B9
330
3BA
330
3BB
330
3BC
330
3BD
330
3BE
330
3BF
330
3C0
330
3C1
330
3C2
330
3C3
330
3C4
330
3C5
330
3C6
330
3C7
330
3C8
330
3C9
330
3CA
330
3CB
330
3CC
330
3CD
330
3CE
330
3CF
330
3D0
330
3D1
330
3D2
330
3D3
330
3D4
330
3D5
330
3D6
330
3D7
330
3D8
330
3D9
330
3DA
330
3DB
330
3DC
330
3DD
330
3DE
330
3DF
330
3E0
330
3E1
330
3E2
330
3E3
330
3E4
330
3E5
330
3E6
330
3E7
330
3E8
330
3E9
330
3EA
330
3EB
330
3EC
330
3ED
330
3EE
330
3EF
330
3F0
330
3F1
330
3F2
330
3F3
330
3F4
330
3F5
330
3F6
330
3F7
330
3F8
330
3F9
330
3FA
330
3FB
330
3FC
330
3FD
330
3FE
330
3FF
330
400
330
401
330
402
330
403
330
404
330
405
330
406
330
407
330
408
330
409
330
40A
330
40B
330
40C
330
40D
330
40E
330
40F
330
410
330
411
330
412
330
413
330
414
330
415
330
416
330
417
330
418
330
419
330
41A
330
41B
330
41C
330
41D
330
41E
330
41F
330
420
330
421
330
422
330
423
330
424
330
425
330
426
330
427
330
428
330
429
330
42A
330
42B
330
42C
330
42D
330
42E
330
42F
330
430
330
431
330
432
330
433
330
434
330
435
330
436
330
437
330
438
330
439
330
43A
330
43B
330
43C
330
43D
330
43E
330
43F
330
440
330
441
330
442
330
443
330
444
330
445
330
446
330
447
330
448
330
449
330
44A
330
44B
330
44C
330
44D
330
44E
330
44F
330
450
330
451
330
452
330
453
330
454
330
455
330
456
330
457
330
458
330
459
330
45A
330
45B
330
45C
330
45D
330
45E
330
45F
330
460
330
461
330
462
330
463
330
464
330
465
330
466
330
467
330
468
330
469
330
46A
330
46B
330
46C
330
46D
330
46E
330
46F
330
470
330
471
330
472
330
473
330
474
330
475
330
476
330
477
330
478
330
479
330
47A
330
47B
330
47C
330
47D
330
47E
330
47F
330
480
330
481
330
482
330
483
330
484
330
485
330
486
330
487
330
488
330
489
330
48A
330
48B
330
48C
330
48D
330
48E
330
48F
330
490
330
491
330
492
330
493
330
494
330
495
330
496
330
497
330
498
330
499
330
49A
330
49B
330
49C
330
49D
330
49E
330
49F
330
4A0
330
4A1
330
4A2
330
4A3
330
4A4
330
4A5
330
4A6
330
4A7
330
4A8
330
4A9
330
4AA
330
4AB
330
4AC
330
4AD
330
4AE
330
4AF
330
4B0
330
4B1
330
4B2
330
4B3
330
4B4
330
4B5
330
4B6
330
4B7
330
4B8
330
4B9
330
4BA
330
4BB
330
4BC
330
4BD
330
4BE
330
4BF
330
4C0
330
4C1
330
4C2
330
4C3
330
4C4
330
4C5
330
4C6
330
4C7
330
4C8
330
4C9
330
4CA
330
4CB
330
4CC
330
4CD
330
4CE
330
4CF
330
4D0
330
4D1
330
4D2
330
4D3
330
4D4
330
4D5
330
4D6
330
4D7
330
4D8
330
4D9
330
4DA
330
4DB
330
4DC
330
4DD
330
4DE
330
4DF
330
4E0
330
4E1
330
4E2
330
4E3
330
4E4
330
4E5
330
4E6
330
4E7
330
4E8
330
4E9
330
4EA
330
4EB
330
4EC
330
4ED
330
4EE
330
4EF
330
4F0
330
4F1
330
4F2
330
4F3
330
4F4
330
4F5
330
4F6
330
4F7
330
4F8
330
4F9
330
4FA
330
4FB
330
4FC
330
4FD
330
4FE
330
4FF
330
500
330
501
330
502
330
503
330
504
330
505
330
506
330
507
330
508
330
509
330
50A
330
50B
330
50C
330
50D
330
50E
330
50F
330
510
330
511
330
512
330
513
330
514
330
515
330
516
330
517
330
518
330
519
330
51A
330
51B
330
51C
330
51D
330
51E
330
51F
330
520
330
521
330
522
330
523
330
524
330
525
330
526
330
527
330
528
330
529
330
52A
330
52B
330
52C
330
52D
330
52E
330
52F
330
530
330
531
330
532
330
533
330
534
330
535
330
536
330
537
330
538
330
539
330
53A
330
5C1
330
5C2
330
5C5
330
5C6
330
5C7
330
5C8
330
5C9
330
5CA
330
5CB
330
5CC
330
5CD
330
5CE
  0
IDBUFFER
  5
5D4
330
0
100
AcDbIdBuffer
  0
IDBUFFER
  5
5D5
330
0
100
AcDbIdBuffer
  0
XRECORD
  5
5EC
102
{ACAD_REACTORS
330
5EB
102
}
330
5EB
100
AcDbXrecord
280
     1
102
SHADEPLOT
 70
     0
102
SHADEPLOTRESLEVEL
 70
     2
102
SHADEPLOTCUSTOMDPI
 70
   300
  0
XRECORD
  5
5EA
102
{ACAD_REACTORS
330
5E9
102
}
330
5E9
100
AcDbXrecord
280
     1
102
SHADEPLOT
 70
     0
102
SHADEPLOTRESLEVEL
 70
     2
102
SHADEPLOTCUSTOMDPI
 70
   300
  0
ACAD_PROXY_OBJECT
  5
56E
330
55E
100
AcDbProxyObject
 90
      499
 91
      526
 95
   917527
 70
     0
 93
       96
310
57020E80A0280A0280A0280800
 94
        0
1001
ACAD
1000
AcRTDxfName
1000
ACMSURFSTANDARDANSI
  0
ACAD_PROXY_OBJECT
  5
56F
330
55E
100
AcDbProxyObject
 90
      499
 91
      527
 95
   917527
 70
     0
 93
      332
310
5710E4050140501405014050140501405014050142501405014050140501405012000000000000000403
340
578
 94
        0
1001
ACAD
1000
AcRTDxfName
1000
ACMFCFSTANDARDANSI
  0
ACAD_PROXY_OBJECT
  5
570
330
55E
100
AcDbProxyObject
 90
      499
 91
      528
 95
   917527
 70
     0
 93
      402
310
570C199999999999E99F91F4050140501405014050140501405014050140501405014050140501405014050140501405014050
340
0
 94
        0
1001
ACAD
1000
AcRTDxfName
1000
ACMWELDSTANDARDANSI
  0
ACAD_PROXY_OBJECT
  5
571
330
55E
100
AcDbProxyObject
 90
      499
 91
      529
 95
   917527
 70
     0
 93
       10
310
5700
 94
        0
1001
ACAD
1000
AcRTDxfName
1000
ACMIDSTANDARDANSI
  0
ACAD_PROXY_OBJECT
  5
572
330
55E
100
AcDbProxyObject
 90
      499
 91
      530
 95
   917527
 70
     0
 93
      223
310
572290EA22A7D90F49F9353333333333727F44D4CCCCCCCCCDC9FA05
340
579
340
57A
 94
        0
1001
ACAD
1000
AcRTDxfName
1000
ACMDATUMSTANDARDANSI
  0
ACAD_PROXY_OBJECT
  5
573
330
55E
100
AcDbProxyObject
 90
      499
 91
      531
 95
   917527
 70
     0
 93
    12857
310
5710E41125511535014112551153501405014069011349A4F2590CB64FD3347454E545241434F2C454E552C302C4954454D2C47454E54524154582C25732C2847454E4D53472067656E647767203232322940690120281A8AA2CA0281A8AA2CA028120280A03202269349E4B2196C9FA648E8A9CA8A482869E588A9CAA5860
310
58A2A8B2588E8A9CA8A482A8B0584AE658508E8A9C9AA68E40CECADCC8EECE406464665280D202405044E414D45405044E414D454051C40640A8BA5C2E97CBE502404CD1D15395149050D3CB1153954B0C0B139053514B11D15395149055160B095CCB0A11D1539354D1C819D95B991DD9C80C8C8D8A50190B3D424C4F434B
310
3A4E414D4540480A0A888AA686A480A16888AA686A492A0A8929E9C80A3A80C81D10782C06030180C809D23A2A72A2920A1A79622A72A9618162222A9A1A924A82A24A7A71623A2A72A2920AA2C1612B9961423A2A726A9A39033B2B7323BB39019189B94A024809014214D51053911054911014214D510539110549110147
310
501904A383BFDFEFF5FBFCFD3747454E545241434F2C454E552C302C5354414E444152442C47454E54524154582C25732C2847454E4D53472067656E64776720323138294049012028426A0AA22A924A0A62028426A0AA22A924A0A62028EA0320B41416D838E9017D9FA6E8E8A9CA8A482869E588A9CAA5860589A82A88AA
310
4928298588E8A9CA8A482A8B0584AE658508E8A9C9AA68E40CECADCC8EECE406464625280D202405044E4F5445405044E4F54454051D40641A8BA5C2E97CBE5F23F4CD1D15395149050D3CB1153954B0C0B1393D5114B11D15395149055160B095CCB0A11D1539354D1C819D95B991DD9C80C8C8D4A501A40480A0CAC8A9C8
310
89EA480A0CAC8A9C889EA480A3A80C83D174B85D2F97CBE47E9AA3A2A72A2920A1A79622A72A9618162B22A72227A91623A2A72A2920AA2C1612B9961423A2A726A9A39033B2B7323BB39019191A14A0348090141911154D0D48C90143511154D0D49254151253D3880C90147501908A20F0580C0603019013B47454E54524
310
1434F2C454E552C302C4445534352495054494F4E20322C47454E54524154582C25732C2847454E4D53472067656E6477672033362940490120284A9AA20A72220A922192028529AA20A72220A92210192028EA0321347077FBFDFEBF7F9FA728E8A9CA8A482869E588A9CAA586058A6A8829C8882A4884064588E8A9CA8A4
310
82A8B0584AE658508E8A9C9AA68E40CECADCC8EECE4064646052809202405094D4154455249414C324050A4D4154455249414C20324051D40642A8282DB071D202FB3F4E11D15395149050D3CB1153954B0C0B1350551154925053080C8B11D15395149055160B095CCB0A11D1539354D1C819D95B991DD9C80D0C0A501240
310
480A089A82A6A680A089A82A6A680A3A80A0485A0681174B85D2F97CBE47E9923A2A72A2920A1A79622A72A96181626A0A9A99623A2A72A2920AA2C1612B9961423A2A726A9A39033B2B7323BB3901A1914A024809014154149250D15014154149250D1501475014090C409022E970BA5F2F97C8FD3347454E545241434F2C
310
454E552C302C50524943452C47454E54524154582C25732C2847454E4D53472067656E6477672034332940490120281A224A6A0285A6A2A0A9AAA922A6A2A72A2028EA028121A81A047DC2910F05877A1FA728E8A9CA8A482869E588A9CAA5860589A8A82A6AAA48A9A8A9CA8588E8A9CA8A482A8B0584AE658508E8A9C9AA
310
68E40CECADCC8EECE406868528092024050E441022E07A17AD46E338FD1E004062B355AAD56AB7D8FCACD56AB55AADF63F41CF4F125511534F9014062B355AAD56AB7D8FCACD56AB55AADF63F41CF4F125511534F9014062431F8FC5E0F3B8FC90C7E3F1783CEE3F41CF4F125511534F9014062431F8FC5E0F3B8FC90C7E3F
310
1783CEE3F41CF4F125511534F90140A404ACD56AB55AADF63F2B355AAD56AB7D8FD073D3C4954454D3E405063D3C5154593E405018ACD56AB55AADF63F2B355AAD56AB7D8FD073D3C4954454D3E40640400ACD56AB55AADF63F2B355AAD56AB7D8FE880000000000000208081A0881A068120480A032208521122080D21480
310
D211480A1485214852050000000000003C2FC000000000000F0BF4050241C3BDF4F8D976EA23F0EF7D3E365DBA88FCB81E85EB51B8BE3FC80D069014090541D06901A5C0F42F5A8DC5F1FA04812028098A0280A4
340
0
340
0
 94
        0
1001
ACAD
1000
AcRTDxfName
1000
ACMBOMSTANDARDANSI
  0
ACAD_PROXY_OBJECT
  5
574
330
55E
100
AcDbProxyObject
 90
      499
 91
      532
 95
   917527
 70
     0
 93
      960
310
5700B81E85EB51B8CE3F4BCF511155105253080F11115510525317D3105091530F971414D0D05311480F11115510525317D05094D4D0D053114F92341C9A9999999999B93F26A666666666724FC000000000000E03F40000000000000040000000000000051000000000000002440478B81E85EB51B8CE3F00
340
28
340
56D
 94
        0
1001
ACAD
1000
AcRTDxfName
1000
ACMDETAILSTANDARDANSI
  0
ACAD_PROXY_OBJECT
  5
575
330
55E
100
AcDbProxyObject
 90
      499
 91
      533
 95
   917527
 70
     0
 93
      745
310
570031703D0BD6A3719C7E999EA9A2A1AA24A7A7101E29A2A1AA24A7A72FA620A122A62FA324A929AA1F169E29A2A1AA24A7A72FA620A122A62FA620A9AA1F1353333333333B27EFF41C8823C4D4CCCCCCCCCEC9FC5C0F42F5A8DC671F8A
340
28
340
56D
 94
        0
1001
ACAD
1000
AcRTDxfName
1000
ACMSECTIONSTANDARDANSI
  0
ACAD_PROXY_OBJECT
  5
576
330
55E
100
AcDbProxyObject
 90
      499
 91
      534
 95
   917527
 70
     0
 93
      279
310
5702B8716D9CEF7C33F0A5723F0BD4A2F0FC295C8FC2F528BC3FA199999999999F99FC
 94
        0
1001
ACAD
1000
AcRTDxfName
1000
ACMCENTERLINESTANDARDANSI
  0
ACAD_PROXY_OBJECT
  5
577
330
55E
100
AcDbProxyObject
 90
      499
 91
      535
 95
   917527
 70
     0
 93
     6546
310
571084050B90142A4050240509C3DDCCDFDAB0C4203140405013D3C696628657175616C28486F6C653A7461707065642C223022292C22252563222C486F6C653A6E6F6D696E616C2022202220696628657175616C28486F6C653A756E6974732C223122292C2278222C222D222920222022293E3C696628657175616C28486
310
F6C653A7461707065642C223022292C486F6C653A6469612C486F6C653A706974636864657363293E207B5C46414D4744543B787D203C696628657175616C28486F6C653A7465726D696E6174696F6E2C223022292C486F6C653A64657074682C228AD192CA22293E5C507B5C46414D4744543B767D2525633C486F6C653A6
310
3746469613E207B5C46414D4744543B787D203C486F6C653A637464657074683E4064050340509C3DDCCDFDAB0C42031405FE3D3C696628657175616C28486F6C653A7461707065642C223022292C22252563222C486F6C653A6E6F6D696E616C2022202220696628657175616C28486F6C653A756E6974732C223122292C2
310
278222C222D222920222022293E3C696628657175616C28486F6C653A7461707065642C223022292C486F6C653A6469612C486F6C653A706974636864657363293E207B5C46414D4744543B787D203C696628657175616C28486F6C653A7465726D696E6174696F6E2C223022292C486F6C653A64657074682C228AD192CA2
310
2293E5C507B5C46414D4744543B777D2525633C486F6C653A63746469613E2058203C486F6C653A6374616E676C653E2525644064050140509C3DDCCDFDAB0C42031405CF3D3C696628657175616C28486F6C653A7461707065642C223022292C22252563222C486F6C653A6E6F6D696E616C2022202220696628657175616
310
C28486F6C653A756E6974732C223122292C2278222C222D222920222022293E3C696628657175616C28486F6C653A7461707065642C223022292C486F6C653A6469612C486F6C653A706974636864657363293E5C507B5C46414D4744543B787D203C696628657175616C28486F6C653A7465726D696E6174696F6E2C22302
310
2292C486F6C653A64657074682C228AD192CA22293E4064051E40509C3DDCCDFDAB0C420314050C3D3C535444503A444553433E40640515A92
 94
        0
1001
ACAD
1000
AcRTDxfName
1000
ACMNOTESTANDARDANSI
  0
ACAD_PROXY_OBJECT
  5
57D
330
55E
100
AcDbProxyObject
 90
      499
 91
      536
 95
   917527
 70
     0
 93
       20
310
571018
340
55F
 94
        0
1001
ACAD
1000
AcRTDxfName
1000
ACAMGLAYSTD
  0
ACAD_PROXY_OBJECT
  5
57E
330
55E
100
AcDbProxyObject
 90
      499
 91
      537
 95
   917527
 70
     0
 93
      258
310
57102000000000000380FC000000000000E03F408F0F9023C3E40DB18CCCFFFF97
340
57F
340
0
340
0
340
580
340
581
340
0
340
582
340
583
340
588
340
0
 94
        0
1001
ACAD
1000
AcRTDxfName
1000
ACAMGDIMSTD
  0
ACAD_PROXY_OBJECT
  5
589
330
55E
100
AcDbProxyObject
 90
      499
 91
      538
 95
   917527
 70
     0
 93
    13249
310
5711A029010300002E07A17AD46E2F8FC09010300002E07A17AD46E2F8FC0805134C495354204F4620434F4F5244494E41544553015091D15395149050D3CB1153954B0C0B131254D50813D18810D3D3D491125390551154CB11D15395149055160B095CCB0A11D1539354D1C819D95B991A5B5E880CCC0A78000C00000000
310
0000000000000000000000007B14AE47E17AA43F2E07A17AD46E2F8FD021EC52B91F85EA90FCB81E85EB51B8BE3F40A01429213D3114815105093114053947454E545241434F2C454E552C302C484F4C45205441424C452C47454E54524154582C25732C2847454E4D53472067656E64696D7A20333129E000300000000000
310
0000000000000000000001EC52B91F85EA90FCB81E85EB51B8BE3F4087B14AE47E17AA43F2E07A17AD46E2F8FD0290B4410F4450240D04415014391244D05449074510C4350F00014193D49251D2538053447454E545241434F2C454E552C302C4F524947494E2C47454E54524154582C25732C2847454E4D53472067656E6
310
4696D7A2031290001010500221400028327A924A3A4A700A688E8A9CA8A482869E588A9CAA5860589EA4928E929C588E8A9CA8A482A8B0584AE658508E8A9C9AA68E40CECADCC8D2DAF4406252000202080043E8000504484F4C45014C91D15395149050D3CB1153954B0C0B1213D3114B11D15395149055160B095CCB0A11
310
D1539354D1C819D95B991A5B5E880C8A405163D3C486F6C654974656D3E3C486F6C65496E6465783E010104002234000280AC00A5E8E8A9CA8A482869E588A9CAA586058B0588E8A9CA8A482A8B0584AE658508E8A9C9AA68E40CECADCC8D2DAF4406652000202000040A800050159014BD1D15395149050D3CB1153954B0C
310
0B164B11D15395149055160B095CCB0A11D1539354D1C819D95B991A5B5E880D0A4000404000081D0000A02A40297A3A2A72A2920A1A79622A72A961816291623A2A72A2920AA2C1612B9961423A2A726A9A39033B2B73234B6BD101B148000808000104A000140A1218053047454E545241434F2C454E552C302C84862C47
310
454E54524154582C25732C2847454E4D53472067656E64696D7A203729000101030020B400028224AA22A680A668E8A9CA8A482869E588A9CAA58605892A88A9A588E8A9CA8A482A8B0584AE658508E8A9C9AA68E40CECADCC8D2DAF4406268520002020A004068000505494E444558014D11D15395149050D3CB1153954B0
310
C0B12539111560B11D15395149055160B095CCB0A11D1539354D1C819D95B991A5B5E880C4D4A400040414008750000A08909E988A0299A3A2A72A2920A1A79622A72A9618162427A6229623A2A72A2920AA2C1612B9961423A2A726A9A39033B2B73234B6BD10189B148000808200112A0001429213D31148125391115600
310
53947454E545241434F2C454E552C302C484F4C4520494E4445582C47454E54524154582C25732C2847454E4D53472067656E64696D7A20313729000101050022740002819292A180A628E8A9CA8A482869E588A9CAA5860584A4A86588E8A9CA8A482A8B0584AE658508E8A9C9AA68E40CECADCC8D2DAF440705200020202
310
0041E8000503515459014C91D15395149050D3CB1153954B0C0B1455164B11D15395149055160B095CCB0A11D1539354D1C819D95B991A5B5E880C4E4A400040418008A50000A16888AA686A492A0A8929E9C029D23A2A72A2920A1A79622A72A9618162222A9A1A924A82A24A7A71623A2A72A2920AA2C1612B9961423A2A
310
726A9A39033B2B73234B6BD10191814800080020010CA00014214D51053911054910053747454E545241434F2C454E552C302C5354414E444152442C47454E54524154582C25732C2847454E4D53472067656E64696D7A20323129000100040021B4878030026A6666666667A4FE064D4CCCCCCCCCF49FC049A9999999999E
310
93F809353333333333D27F0226A6666666667A4FE044D4CCCCCCCCCF49FC009A9999999999D93F801353333333333D27F0026A6666666667A4FE004D4CCCCCCCCCF49FC0D819703D0BD6A371BC7F03000000000000001020633B333333333032050F006004D4CCCCCCCCCF49FC0C9A9999999999E93F819353333333333D27
310
F0326A6666666667A4FE064D4CCCCCCCCCF49FC0C9A9999999999E93F801353333333333B27F0026A6666666667A4FE064D4CCCCCCCCCF49FC009A9999999999E93F81B032E07A17AD46E378FE06000000000000002040C6766666666660640A088800000021E000000890000002260000008220E000200890000002060002
310
008100008000
340
0
340
0
340
0
340
0
 94
        0
1001
ACAD
1000
AcRTDxfName
1000
ACAMGHOLECHARTSTDANSI
  0
ACAD_PROXY_OBJECT
  5
58A
330
55E
100
AcDbProxyObject
 90
      499
 91
      539
 95
   917527
 70
     0
 93
     5022
310
5719741105394D2506414E53495F4342905394D257D512551554D15414E53495F54525F5265766973696F6E6C697374614191143202831372E307832322E30696E63682941905394D257D0D1146202832382E307834302E30696E63682941905394D257D191142202831312E307831372E30696E63682941905394D257D091
310
144202832322E307833342E30696E63682941905394D257D111145202833342E307834342E30696E63682941905394D257D1510412028382E357831312E30696E63682941905394D257D050543905B9CDA482557247A25E4C81110D0C414E53495F5449544C45444343505B9CDA482557247A25E4C81050B414E53495F5449
310
544C454143905B9CDA482557247A25E4C81050D0C414E53495F5449544C45414343505B9CDA482557247A25E4C81110B414E53495F5449544C4544425554C82557247A25E4D0A414E53495F54495455534210D979A97F0D8BDC420415F42525F45505394D257D09497D4995D9A5CDA5BDB9B1A5CDD1850D979A97F0D8BDC42
310
0415F54525F45505394D257D51497D4995D9A5CDA5BDB9B1A5CDD1850D979A97F0D8BDC420445F42525F45505394D257D09497D4995D9A5CDA5BDB9B1A5CDD1910D979A97F0D8BDC420445F54525F45505394D257D51497D4995D9A5CDA5BDB9B1A5CDD1910D979A97F0D8BDC420415F424C5F45505394D257D09317D4995D
310
9A5CDA5BDB9B1A5CDD1850D979A97F0D8BDC420415F544C5F45505394D257D51317D4995D9A5CDA5BDB9B1A5CDD1850D979A97F0D8BDC420445F424C5F45505394D257D09317D4995D9A5CDA5BDB9B1A5CDD1910D979A97F0D8BDC420445F544C5F45505394D257D51317D4995D9A5CDA5BDB9B1A5CDD190
 94
        0
1001
ACAD
1000
AcRTDxfName
1000
ACAMGTITLESTD
  0
ENDSEC
  0
EOF
